  0
SECTION
  2
HEADER
  9
$ACADVER
  1
AC1015
  9
$ACADMAINTVER
 70
    20
  9
$DWGCODEPAGE
  3
ANSI_1252
  9
$INSBASE
 10
0.0
 20
0.0
 30
0.0
  9
$EXTMIN
 10
498.8540575027846
 20
-2604.889331089312
 30
-0.0015258207003583
  9
$EXTMAX
 10
1026.415988921913
 20
-2195.539538019385
 30
0.0000000349246037
  9
$LIMMIN
 10
0.0
 20
0.0
  9
$LIMMAX
 10
420.0
 20
297.0
  9
$ORTHOMODE
 70
     1
  9
$REGENMODE
 70
     1
  9
$FILLMODE
 70
     1
  9
$QTEXTMODE
 70
     0
  9
$MIRRTEXT
 70
     0
  9
$LTSCALE
 40
1.0
  9
$ATTMODE
 70
     1
  9
$TEXTSIZE
 40
2.5
  9
$TRACEWID
 40
1.0
  9
$TEXTSTYLE
  7
Standard
  9
$CLAYER
  8
0
  9
$CELTYPE
  6
ByLayer
  9
$CECOLOR
 62
   256
  9
$CELTSCALE
 40
1.0
  9
$DISPSILH
 70
     0
  9
$DIMSCALE
 40
1.0
  9
$DIMASZ
 40
4.0
  9
$DIMEXO
 40
2.0
  9
$DIMDLI
 40
2.0
  9
$DIMRND
 40
0.0
  9
$DIMDLE
 40
0.0
  9
$DIMEXE
 40
2.0
  9
$DIMTP
 40
0.05
  9
$DIMTM
 40
0.05
  9
$DIMTXT
 40
2.5
  9
$DIMCEN
 40
1.0
  9
$DIMTSZ
 40
0.0
  9
$DIMTOL
 70
     0
  9
$DIMLIM
 70
     0
  9
$DIMTIH
 70
     0
  9
$DIMTOH
 70
     0
  9
$DIMSE1
 70
     0
  9
$DIMSE2
 70
     0
  9
$DIMTAD
 70
     1
  9
$DIMZIN
 70
     4
  9
$DIMBLK
  1

  9
$DIMASO
 70
     1
  9
$DIMSHO
 70
     1
  9
$DIMPOST
  1

  9
$DIMAPOST
  1

  9
$DIMALT
 70
     0
  9
$DIMALTD
 70
     3
  9
$DIMALTF
 40
0.03937
  9
$DIMLFAC
 40
1.0
  9
$DIMTOFL
 70
     0
  9
$DIMTVP
 40
0.0
  9
$DIMTIX
 70
     0
  9
$DIMSOXD
 70
     0
  9
$DIMSAH
 70
     0
  9
$DIMBLK1
  1

  9
$DIMBLK2
  1

  9
$DIMSTYLE
  2
STANDARD
  9
$DIMCLRD
 70
     2
  9
$DIMCLRE
 70
     2
  9
$DIMCLRT
 70
   256
  9
$DIMTFAC
 40
0.65
  9
$DIMGAP
 40
2.0
  9
$DIMJUST
 70
     0
  9
$DIMSD1
 70
     0
  9
$DIMSD2
 70
     0
  9
$DIMTOLJ
 70
     1
  9
$DIMTZIN
 70
     8
  9
$DIMALTZ
 70
     8
  9
$DIMALTTZ
 70
     8
  9
$DIMUPT
 70
     0
  9
$DIMDEC
 70
     1
  9
$DIMTDEC
 70
     1
  9
$DIMALTU
 70
     4
  9
$DIMALTTD
 70
     3
  9
$DIMTXSTY
  7
1-2
  9
$DIMAUNIT
 70
     0
  9
$DIMADEC
 70
     1
  9
$DIMALTRND
 40
0.0
  9
$DIMAZIN
 70
     1
  9
$DIMDSEP
 70
    46
  9
$DIMATFIT
 70
     3
  9
$DIMFRAC
 70
     1
  9
$DIMLDRBLK
  1

  9
$DIMLUNIT
 70
     2
  9
$DIMLWD
 70
    -2
  9
$DIMLWE
 70
    -2
  9
$DIMTMOVE
 70
     0
  9
$LUNITS
 70
     2
  9
$LUPREC
 70
     4
  9
$SKETCHINC
 40
1.0
  9
$FILLETRAD
 40
0.0
  9
$AUNITS
 70
     0
  9
$AUPREC
 70
     0
  9
$MENU
  1
.
  9
$ELEVATION
 40
0.0
  9
$PELEVATION
 40
0.0
  9
$THICKNESS
 40
0.0
  9
$LIMCHECK
 70
     0
  9
$CHAMFERA
 40
1.0
  9
$CHAMFERB
 40
1.0
  9
$CHAMFERC
 40
0.0
  9
$CHAMFERD
 40
0.0
  9
$SKPOLY
 70
     0
  9
$TDCREATE
 40
2453860.639871794
  9
$TDUCREATE
 40
2453860.931538461
  9
$TDUPDATE
 40
2456748.644778403
  9
$TDUUPDATE
 40
2456748.936445070
  9
$TDINDWG
 40
6.1357721528
  9
$TDUSRTIMER
 40
6.1357702315
  9
$USRTIMER
 70
     1
  9
$ANGBASE
 50
0.0
  9
$ANGDIR
 70
     0
  9
$PDMODE
 70
     0
  9
$PDSIZE
 40
0.0
  9
$PLINEWID
 40
0.0
  9
$SPLFRAME
 70
     0
  9
$SPLINETYPE
 70
     6
  9
$SPLINESEGS
 70
     8
  9
$HANDSEED
  5
29A2F
  9
$SURFTAB1
 70
     6
  9
$SURFTAB2
 70
     6
  9
$SURFTYPE
 70
     6
  9
$SURFU
 70
     6
  9
$SURFV
 70
     6
  9
$UCSBASE
  2

  9
$UCSNAME
  2

  9
$UCSORG
 10
0.0
 20
0.0
 30
0.0
  9
$UCSXDIR
 10
1.0
 20
0.0
 30
0.0
  9
$UCSYDIR
 10
0.0
 20
1.0
 30
0.0
  9
$UCSORTHOREF
  2

  9
$UCSORTHOVIEW
 70
     0
  9
$UCSORGTOP
 10
0.0
 20
0.0
 30
0.0
  9
$UCSORGBOTTOM
 10
0.0
 20
0.0
 30
0.0
  9
$UCSORGLEFT
 10
0.0
 20
0.0
 30
0.0
  9
$UCSORGRIGHT
 10
0.0
 20
0.0
 30
0.0
  9
$UCSORGFRONT
 10
0.0
 20
0.0
 30
0.0
  9
$UCSORGBACK
 10
0.0
 20
0.0
 30
0.0
  9
$PUCSBASE
  2

  9
$PUCSNAME
  2

  9
$PUCSORG
 10
0.0
 20
0.0
 30
0.0
  9
$PUCSXDIR
 10
1.0
 20
0.0
 30
0.0
  9
$PUCSYDIR
 10
0.0
 20
1.0
 30
0.0
  9
$PUCSORTHOREF
  2

  9
$PUCSORTHOVIEW
 70
     0
  9
$PUCSORGTOP
 10
0.0
 20
0.0
 30
0.0
  9
$PUCSORGBOTTOM
 10
0.0
 20
0.0
 30
0.0
  9
$PUCSORGLEFT
 10
0.0
 20
0.0
 30
0.0
  9
$PUCSORGRIGHT
 10
0.0
 20
0.0
 30
0.0
  9
$PUCSORGFRONT
 10
0.0
 20
0.0
 30
0.0
  9
$PUCSORGBACK
 10
0.0
 20
0.0
 30
0.0
  9
$USERI1
 70
     0
  9
$USERI2
 70
     0
  9
$USERI3
 70
     0
  9
$USERI4
 70
     0
  9
$USERI5
 70
     0
  9
$USERR1
 40
0.0
  9
$USERR2
 40
0.0
  9
$USERR3
 40
0.0
  9
$USERR4
 40
0.0
  9
$USERR5
 40
0.0
  9
$WORLDVIEW
 70
     1
  9
$SHADEDGE
 70
     3
  9
$SHADEDIF
 70
    70
  9
$TILEMODE
 70
     1
  9
$MAXACTVP
 70
    64
  9
$PINSBASE
 10
0.0
 20
0.0
 30
0.0
  9
$PLIMCHECK
 70
     0
  9
$PEXTMIN
 10
42.80009843104778
 20
27.77230490526915
 30
-0.0015258207003583
  9
$PEXTMAX
 10
385.4292660594398
 20
250.1036903628446
 30
0.0000000349246037
  9
$PLIMMIN
 10
-1.18603515625
 20
-0.7619999647140503
  9
$PLIMMAX
 10
429.5139770507812
 20
278.6379939317703
  9
$UNITMODE
 70
     0
  9
$VISRETAIN
 70
     1
  9
$PLINEGEN
 70
     0
  9
$PSLTSCALE
 70
     1
  9
$TREEDEPTH
 70
  3020
  9
$CMLSTYLE
  2
Standard
  9
$CMLJUST
 70
     0
  9
$CMLSCALE
 40
20.0
  9
$PROXYGRAPHICS
 70
     1
  9
$MEASUREMENT
 70
     1
  9
$CELWEIGHT
370
    -1
  9
$ENDCAPS
280
     0
  9
$JOINSTYLE
280
     0
  9
$LWDISPLAY
290
     0
  9
$INSUNITS
 70
     4
  9
$HYPERLINKBASE
  1

  9
$STYLESHEET
  1
MONOCHROME.CTB
  9
$XEDIT
290
     1
  9
$CEPSNTYPE
380
     0
  9
$PSTYLEMODE
290
     1
  9
$FINGERPRINTGUID
  2
{F9361695-FC9E-4104-9993-4EA18EF22591}
  9
$VERSIONGUID
  2
{371920A9-13BA-4F38-8716-5ED132E8BADC}
  9
$EXTNAMES
290
     1
  9
$PSVPSCALE
 40
0.0
  9
$OLESTARTUP
290
     0
  0
ENDSEC
  0
SECTION
  2
CLASSES
  0
CLASS
  1
ACDBDICTIONARYWDFLT
  2
AcDbDictionaryWithDefault
  3
ObjectDBX Classes
 90
        0
280
     0
281
     0
  0
CLASS
  1
TABLESTYLE
  2
AcDbTableStyle
  3
ObjectDBX Classes
 90
     4095
280
     0
281
     0
  0
CLASS
  1
SORTENTSTABLE
  2
AcDbSortentsTable
  3
ObjectDBX Classes
 90
        0
280
     0
281
     0
  0
CLASS
  1
DICTIONARYVAR
  2
AcDbDictionaryVar
  3
ObjectDBX Classes
 90
        0
280
     0
281
     0
  0
CLASS
  1
DIMASSOC
  2
AcDbDimAssoc
  3
"AcDbDimAssoc|Product Desc:     AcDim ARX App For Dimension|Company:          Autodesk, Inc.|WEB Address:      www.autodesk.com"
 90
    32768
280
     0
281
     0
  0
CLASS
  1
MATERIAL
  2
AcDbMaterial
  3
ObjectDBX Classes
 90
     1153
280
     0
281
     0
  0
CLASS
  1
VISUALSTYLE
  2
AcDbVisualStyle
  3
ObjectDBX Classes
 90
     4095
280
     0
281
     0
  0
CLASS
  1
EXACXREFPANELOBJECT
  2
ExAcXREFPanelObject
  3
EXAC_ESW
 90
    33793
280
     0
281
     0
  0
CLASS
  1
NPOCOLLECTION
  2
AcDbImpNonPersistentObjectsCollection
  3
ObjectDBX Classes
 90
    33921
280
     0
281
     0
  0
CLASS
  1
ACAD_EVALUATION_GRAPH
  2
AcDbEvalGraph
  3
ObjectDBX Classes
 90
     1153
280
     0
281
     0
  0
CLASS
  1
ACAECUSTOBJ
  2
AcAeEditorObj
  3
AcAeEditorObj
 90
     1024
280
     0
281
     0
  0
CLASS
  1
ACDB_DYNAMICBLOCKPURGEPREVENTER_VERSION
  2
AcDbDynamicBlockPurgePreventer
  3
ObjectDBX Classes
 90
     1153
280
     0
281
     0
  0
CLASS
  1
ACAD_TABLE
  2
AcDbTable
  3
ObjectDBX Classes
 90
    33793
280
     0
281
     1
  0
CLASS
  1
ACDBDATATABLE
  2
AcDbDataTable
  3
AcMapAnnotObj|Product Desc:     AutoCAD MAP DBX App for Annotation Entity|Company:          Autodesk,Inc.|WEB Address:      www.autodesk.com
 90
    32768
280
     0
281
     0
  0
CLASS
  1
ACDBPLACEHOLDER
  2
AcDbPlaceHolder
  3
ObjectDBX Classes
 90
        0
280
     0
281
     0
  0
CLASS
  1
LAYOUT
  2
AcDbLayout
  3
ObjectDBX Classes
 90
        0
280
     0
281
     0
  0
CLASS
  1
SCALE
  2
AcDbScale
  3
ObjectDBX Classes
 90
     1153
280
     0
281
     0
  0
CLASS
  1
MLEADERSTYLE
  2
AcDbMLeaderStyle
  3
ACDB_MLEADERSTYLE_CLASS
 90
     4095
280
     0
281
     0
  0
CLASS
  1
CELLSTYLEMAP
  2
AcDbCellStyleMap
  3
ObjectDBX Classes
 90
     1152
280
     0
281
     0
  0
ENDSEC
  0
SECTION
  2
TABLES
  0
TABLE
  2
VPORT
  5
8
102
{ACAD_XDICTIONARY
360
ED8B
102
}
330
0
100
AcDbSymbolTable
 70
     1
  0
VPORT
  5
9925
330
8
100
AcDbSymbolTableRecord
100
AcDbViewportTableRecord
  2
*Active
 70
     0
 10
0.0
 20
0.0
 11
1.0
 21
1.0
 12
762.6350232123488
 22
-2400.214434554349
 13
0.0
 23
0.0
 14
10.0
 24
10.0
 15
10.0
 25
10.0
 16
0.0
 26
0.0
 36
1.0
 17
0.0
 27
0.0
 37
0.0
 40
412.4666696669055
 41
1.494282083862769
 42
50.0
 43
0.0
 44
0.0
 50
0.0
 51
0.0
 71
     0
 72
 20000
 73
     1
 74
     3
 75
     0
 76
     0
 77
     0
 78
     0
281
     0
 65
     1
110
-226.9490400000001
120
0.0000000000001454
130
0.0
111
1.0
121
0.0
131
0.0
112
0.0
122
1.0
132
0.0
 79
     0
146
0.0
1001
ACAD_NAV_VCDISPLAY
1070
     3
  0
ENDTAB
  0
TABLE
  2
LTYPE
  5
5
330
0
100
AcDbSymbolTable
 70
     3
  0
LTYPE
  5
14
330
5
100
AcDbSymbolTableRecord
100
AcDbLinetypeTableRecord
  2
ByBlock
 70
     0
  3

 72
    65
 73
     0
 40
0.0
  0
LTYPE
  5
15
330
5
100
AcDbSymbolTableRecord
100
AcDbLinetypeTableRecord
  2
ByLayer
 70
     0
  3

 72
    65
 73
     0
 40
0.0
  0
LTYPE
  5
16
330
5
100
AcDbSymbolTableRecord
100
AcDbLinetypeTableRecord
  2
Continuous
 70
     0
  3
Solid line
 72
    65
 73
     0
 40
0.0
  0
LTYPE
  5
29930
330
5
100
AcDbSymbolTableRecord
100
AcDbLinetypeTableRecord
  2
DASHED
 70
     0
  3
- - - - - - - - - - - - - - - - - - - -
 72
    65
 73
     2
 40
0.2
 49
0.1
 74
     0
 49
-0.1
 74
     0
  0
ENDTAB
  0
TABLE
  2
LAYER
  5
2
102
{ACAD_XDICTIONARY
360
6F
102
}
330
0
100
AcDbSymbolTable
 70
     3
  0
LAYER
  5
10
102
{ACAD_XDICTIONARY
360
2958F
102
}
330
2
100
AcDbSymbolTableRecord
100
AcDbLayerTableRecord
  2
0
 70
     0
 62
     7
  6
Continuous
370
    -3
390
F
  0
LAYER
  5
1B4B3
330
2
100
AcDbSymbolTableRecord
100
AcDbLayerTableRecord
  2
Defpoints
 70
     0
 62
     7
  6
Continuous
290
     0
370
    -3
390
F
  0
LAYER
  5
2966F
102
{ACAD_XDICTIONARY
360
29670
102
}
330
2
100
AcDbSymbolTableRecord
100
AcDbLayerTableRecord
  2
SS-Hardware
 70
     0
 62
     5
  6
Continuous
370
    20
390
F
1001
AcAecLayerStandard
1000

1000

  0
ENDTAB
  0
TABLE
  2
STYLE
  5
3
330
0
100
AcDbSymbolTable
 70
     2
  0
STYLE
  5
11
330
3
100
AcDbSymbolTableRecord
100
AcDbTextStyleTableRecord
  2
Standard
 70
     0
 40
0.0
 41
1.0
 50
0.0
 71
     0
 42
2.5
  3
txt
  4

  0
STYLE
  5
6D84
330
3
100
AcDbSymbolTableRecord
100
AcDbTextStyleTableRecord
  2
1-2
 70
     0
 40
4.0
 41
1.0
 50
0.0
 71
     0
 42
4.5
  3
ARIAL.TTF
  4

1001
ACAD
1000
Arial
1071
       34
  0
ENDTAB
  0
TABLE
  2
VIEW
  5
6
330
0
100
AcDbSymbolTable
 70
     0
  0
ENDTAB
  0
TABLE
  2
UCS
  5
7
330
0
100
AcDbSymbolTable
 70
     0
  0
ENDTAB
  0
TABLE
  2
APPID
  5
9
330
0
100
AcDbSymbolTable
 70
    13
  0
APPID
  5
12
330
9
100
AcDbSymbolTableRecord
100
AcDbRegAppTableRecord
  2
ACAD
 70
     0
  0
APPID
  5
6E
330
9
100
AcDbSymbolTableRecord
100
AcDbRegAppTableRecord
  2
AcAecLayerStandard
 70
     0
  0
APPID
  5
2D8
330
9
100
AcDbSymbolTableRecord
100
AcDbRegAppTableRecord
  2
ACAD_PSEXT
 70
     0
  0
APPID
  5
671
330
9
100
AcDbSymbolTableRecord
100
AcDbRegAppTableRecord
  2
ACAD_DSTYLE_DIMTEXT_FILL
 70
     0
  0
APPID
  5
9998
330
9
100
AcDbSymbolTableRecord
100
AcDbRegAppTableRecord
  2
ACAD_EXEMPT_FROM_CAD_STANDARDS
 70
     0
  0
APPID
  5
AEF2
330
9
100
AcDbSymbolTableRecord
100
AcDbRegAppTableRecord
  2
RAK
 70
     0
  0
APPID
  5
B86C
330
9
100
AcDbSymbolTableRecord
100
AcDbRegAppTableRecord
  2
AcDbBlockRepETag
 70
     0
  0
APPID
  5
F28F
330
9
100
AcDbSymbolTableRecord
100
AcDbRegAppTableRecord
  2
AcDbDynamicBlockGUID
 70
     0
  0
APPID
  5
F2C7
330
9
100
AcDbSymbolTableRecord
100
AcDbRegAppTableRecord
  2
ACAUTHENVIRON
 70
     0
  0
APPID
  5
F2CA
330
9
100
AcDbSymbolTableRecord
100
AcDbRegAppTableRecord
  2
AcDbDynamicBlockTrueName
 70
     0
  0
APPID
  5
17502
330
9
100
AcDbSymbolTableRecord
100
AcDbRegAppTableRecord
  2
ACAD_DSTYLE_DIMARC_LENGTH_SYMBOL
 70
     0
  0
APPID
  5
29580
330
9
100
AcDbSymbolTableRecord
100
AcDbRegAppTableRecord
  2
ACAD_NAV_VCDISPLAY
 70
     0
  0
APPID
  5
295D8
330
9
100
AcDbSymbolTableRecord
100
AcDbRegAppTableRecord
  2
ACAD_MLEADERVER
 70
     0
  0
ENDTAB
  0
TABLE
  2
DIMSTYLE
  5
A
330
0
100
AcDbSymbolTable
 70
     1
100
AcDbDimStyleTable
 71
     1
340
226DB
  0
DIMSTYLE
105
226DB
330
A
100
AcDbSymbolTableRecord
100
AcDbDimStyleTableRecord
  2
STANDARD
 70
     0
 41
4.0
 42
2.0
 43
1.0
 44
1.0
 73
     0
 74
     0
 77
     1
140
3.0
141
1.0
147
2.0
176
   256
177
   256
178
     7
271
     1
272
     1
279
     2
340
11
371
    -1
372
    -1
  0
ENDTAB
  0
TABLE
  2
BLOCK_RECORD
  5
1
330
0
100
AcDbSymbolTable
 70
    11
  0
BLOCK_RECORD
  5
23
102
{ACAD_XDICTIONARY
360
B9
102
}
330
1
100
AcDbSymbolTableRecord
100
AcDbBlockTableRecord
  2
*Model_Space
340
26
  0
BLOCK_RECORD
  5
1263E
330
1
100
AcDbSymbolTableRecord
100
AcDbBlockTableRecord
  2
*Paper_Space
340
1263F
  0
BLOCK_RECORD
  5
24CBA
102
{ACAD_XDICTIONARY
360
29838
102
}
330
1
100
AcDbSymbolTableRecord
100
AcDbBlockTableRecord
  2
S20-1Sa-SV1
340
0
310
2800000020000000200000000100080000000000000400000000000000000000000000000000000000000000000080000080000000808000800000008000800080800000C0C0C000C0DCC000F0CAA6000020400000206000002080000020A0000020C0000020E00000400000004020000040400000406000004080000040A0
310
000040C0000040E00000600000006020000060400000606000006080000060A0000060C0000060E00000800000008020000080400000806000008080000080A0000080C0000080E00000A0000000A0200000A0400000A0600000A0800000A0A00000A0C00000A0E00000C0000000C0200000C0400000C0600000C0800000C0
310
A00000C0C00000C0E00000E0000000E0200000E0400000E0600000E0800000E0A00000E0C00000E0E00040000000400020004000400040006000400080004000A0004000C0004000E00040200000402020004020400040206000402080004020A0004020C0004020E000404000004040200040404000404060004040800040
310
40A0004040C0004040E00040600000406020004060400040606000406080004060A0004060C0004060E00040800000408020004080400040806000408080004080A0004080C0004080E00040A0000040A0200040A0400040A0600040A0800040A0A00040A0C00040A0E00040C0000040C0200040C0400040C0600040C08000
310
40C0A00040C0C00040C0E00040E0000040E0200040E0400040E0600040E0800040E0A00040E0C00040E0E00080000000800020008000400080006000800080008000A0008000C0008000E00080200000802020008020400080206000802080008020A0008020C0008020E00080400000804020008040400080406000804080
310
008040A0008040C0008040E00080600000806020008060400080606000806080008060A0008060C0008060E00080800000808020008080400080806000808080008080A0008080C0008080E00080A0000080A0200080A0400080A0600080A0800080A0A00080A0C00080A0E00080C0000080C0200080C0400080C0600080C0
310
800080C0A00080C0C00080C0E00080E0000080E0200080E0400080E0600080E0800080E0A00080E0C00080E0E000C0000000C0002000C0004000C0006000C0008000C000A000C000C000C000E000C0200000C0202000C0204000C0206000C0208000C020A000C020C000C020E000C0400000C0402000C0404000C0406000C0
310
408000C040A000C040C000C040E000C0600000C0602000C0604000C0606000C0608000C060A000C060C000C060E000C0800000C0802000C0804000C0806000C0808000C080A000C080C000C080E000C0A00000C0A02000C0A04000C0A06000C0A08000C0A0A000C0A0C000C0A0E000C0C00000C0C02000C0C04000C0C06000
310
C0C08000C0C0A000F0FBFF00A4A0A000808080000000FF0000FF000000FFFF00FF000000FF00FF00FFFF0000FFFFFF00FFFFFFFFFFFFFFFFFFFFFFFFFFFFFFFFFFFFFFFFFFFFFFFFFFFFFFFFFFFFFFFFFFFFFFFFFFFFFFFFFFFFFFFFFFFFFFFFFFFFFFFFFFFFFFFFFFFFFFFFFFFFFFFFFFFFFFFFFFFFFFFFFFFFFFFFFCFCFC
310
FCFFFFFFFFFFFFFFFFFFFFFFFFFFFFFFFFFFFFFFFFFFFFFFFFFFFFFFFCFFFCFCFCFCFFFFFFFFFFFFFFFFFFFFFFFFFFFFFFFFFFFFFFFFFFFFFFFFFFFCFCFCFCFCFFFCFCFFFFFFFFFFFFFFFFFFFFFFFFFFFFFFFFFFFFFFFFFFFFFFFFFCFCFCFFFFFCFCFCFFFFFFFFFFFFFFFFFFFFFFFFFFFFFFFFFFFFFFFFFFFFFFFFFCFCFFFC
310
FCFFFCFCFFFFFFFFFFFFFFFFFFFFFFFFFFFFFFFFFFFFFFFFFFFFFFFFFCFFFCFCFCFCFFFCFFFFFFFFFFFFFFFFFFFFFFFFFFFFFFFFFFFFFFFFFFFFFFFFFCFFFFFFFFFFFFFCFFFFFFFFFFFFFFFFFFFFFFFFFFFFFFFFFFFFFFFFFFFFFFFFFCFFFFFFFFFFFFFCFFFFFFFFFFFFFFFFFFFFFFFFFFFFFFFFFFFFFFFFFFFFFFFFFCFFFF
310
FFFFFFFFFCFFFFFFFFFFFFFFFFFFFFFFFFFFFFFFFFFFFFFFFFFFFFFFFFFCFFFFFFFFFFFFFCFFFFFFFFFFFFFFFFFFFFFFFFFFFFFFFFFFFFFFFFFFFFFFFFFCFFFFFFFFFFFCFCFFFFFFFCFCFFFFFFFFFFFFFFFFFFFFFFFFFFFFFFFFFFFFFFFCFFFFFFFFFFFCFCFFFCFCFCFCFFFFFFFFFFFFFFFFFFFFFFFFFFFFFFFFFFFFFFFCFC
310
FCFCFCFCFCFCFCFCFCFCFCFFFFFFFFFFFFFFFFFFFFFFFFFFFFFFFFFFFFFFFCFFFFFFFFFFFFFCFCFFFFFCFCFFFFFFFFFFFFFFFFFFFFFFFFFFFFFFFFFFFFFFFCFFFFFFFFFFFFFCFCFFFFFCFCFFFFFFFFFFFFFFFFFFFFFFFFFFFFFFFFFFFFFFFCFCFCFCFCFCFCFCFCFCFFFCFCFFFFFFFFFFFFFFFFFFFFFFFFFFFFFFFFFFFFFFFC
310
FFFFFFFFFFFCFCFFFCFCFCFCFFFFFFFFFFFFFFFFFFFFFFFFFFFFFFFFFFFFFFFCFFFFFFFFFFFCFCFFFFFCFCFCFFFFFFFFFFFFFFFFFFFFFFFFFFFFFFFFFFFFFFFCFFFFFFFFFFFFFCFFFFFFFFFFFFFFFFFFFFFFFFFFFFFFFFFFFFFFFFFFFFFFFFFCFFFFFFFFFFFFFCFFFFFFFFFFFFFFFFFFFFFFFFFFFFFFFFFFFFFFFFFFFFFFFF
310
FCFFFFFFFFFFFFFCFFFFFFFFFFFFFFFFFFFFFFFFFFFFFFFFFFFFFFFFFFFFFFFFFCFFFFFFFFFFFFFCFFFFFFFFFFFFFFFFFFFFFFFFFFFFFFFFFFFFFFFFFFFFFFFFFCFFFFFCFCFCFFFCFFFFFFFFFFFFFFFFFFFFFFFFFFFFFFFFFFFFFFFFFFFFFFFFFCFCFCFCFCFFFCFCFFFFFFFFFFFFFFFFFFFFFFFFFFFFFFFFFFFFFFFFFFFFFF
310
FFFCFCFCFFFFFCFCFCFFFFFFFFFFFFFFFFFFFFFFFFFFFFFFFFFFFFFFFFFFFFFFFFFCFCFFFCFCFFFCFCFFFFFFFFFFFFFFFFFFFFFFFFFFFFFFFFFFFFFFFFFFFFFFFFFFFCFCFCFCFCFCFFFFFFFFFFFFFFFFFFFFFFFFFFFFFFFFFFFFFFFFFFFFFFFFFFFFFFFCFCFCFCFFFFFFFFFFFFFFFFFFFFFFFFFFFFFFFFFFFFFFFFFFFFFFFF
310
FFFFFFFFFFFFFFFFFFFFFFFFFFFFFFFFFFFFFFFFFFFFFFFFFFFFFFFFFFFFFFFFFFFFFFFFFFFFFFFFFFFFFFFFFFFFFFFFFFFFFFFFFFFFFFFF
102
{BLKREFS
331
297B7
331
298D2
102
}
1001
AcDbBlockRepETag
1070
     1
1071
       53
1001
AcDbDynamicBlockGUID
1000
{6D3308FC-EA93-4100-A76D-4351CB948B85}
  0
BLOCK_RECORD
  5
290E2
102
{ACAD_XDICTIONARY
360
298D4
102
}
330
1
100
AcDbSymbolTableRecord
100
AcDbBlockTableRecord
  2
SS202T-AB702T-DN-SV
340
0
310
2800000020000000200000000100080000000000000400000000000000000000000000000000000000000000000080000080000000808000800000008000800080800000C0C0C000C0DCC000F0CAA6000020400000206000002080000020A0000020C0000020E00000400000004020000040400000406000004080000040A0
310
000040C0000040E00000600000006020000060400000606000006080000060A0000060C0000060E00000800000008020000080400000806000008080000080A0000080C0000080E00000A0000000A0200000A0400000A0600000A0800000A0A00000A0C00000A0E00000C0000000C0200000C0400000C0600000C0800000C0
310
A00000C0C00000C0E00000E0000000E0200000E0400000E0600000E0800000E0A00000E0C00000E0E00040000000400020004000400040006000400080004000A0004000C0004000E00040200000402020004020400040206000402080004020A0004020C0004020E000404000004040200040404000404060004040800040
310
40A0004040C0004040E00040600000406020004060400040606000406080004060A0004060C0004060E00040800000408020004080400040806000408080004080A0004080C0004080E00040A0000040A0200040A0400040A0600040A0800040A0A00040A0C00040A0E00040C0000040C0200040C0400040C0600040C08000
310
40C0A00040C0C00040C0E00040E0000040E0200040E0400040E0600040E0800040E0A00040E0C00040E0E00080000000800020008000400080006000800080008000A0008000C0008000E00080200000802020008020400080206000802080008020A0008020C0008020E00080400000804020008040400080406000804080
310
008040A0008040C0008040E00080600000806020008060400080606000806080008060A0008060C0008060E00080800000808020008080400080806000808080008080A0008080C0008080E00080A0000080A0200080A0400080A0600080A0800080A0A00080A0C00080A0E00080C0000080C0200080C0400080C0600080C0
310
800080C0A00080C0C00080C0E00080E0000080E0200080E0400080E0600080E0800080E0A00080E0C00080E0E000C0000000C0002000C0004000C0006000C0008000C000A000C000C000C000E000C0200000C0202000C0204000C0206000C0208000C020A000C020C000C020E000C0400000C0402000C0404000C0406000C0
310
408000C040A000C040C000C040E000C0600000C0602000C0604000C0606000C0608000C060A000C060C000C060E000C0800000C0802000C0804000C0806000C0808000C080A000C080C000C080E000C0A00000C0A02000C0A04000C0A06000C0A08000C0A0A000C0A0C000C0A0E000C0C00000C0C02000C0C04000C0C06000
310
C0C08000C0C0A000F0FBFF00A4A0A000808080000000FF0000FF000000FFFF00FF000000FF00FF00FFFF0000FFFFFF0000000000000000000000000000000000000000000000000000000000000000000000000000000000000000000000000000000000000000000000000000000000000000000000000000000000000000
310
0000000000000000000000000000000000000000000000000000000000000000000000000000000000FCFCFCFC000000000000000000000000000000000000000000000000000000FCFCFCFCFCFC00000000000000000000000000000000000000000000000000FC00FC00FCFCFCFC00000000000000000000000000000000
310
0000000000000000FCFC000000FCFCFC000000000000000000000000000000000000000000000000FC00FCFCFCFC00FC000000000000000000000000000000000000000000000000FC0000FCFC0000FC000000000000000000000000000000000000000000000000FC000000000000FC0000000007000707070700FC000000
310
0000000000000000FC00000000000000FC0000000007000707070700FC0000000000000000000000FC00000000000000FC000000FC07FCFCFC070707FCFC000000000000FCFCFC00FC00000000000000FC000000FC07FCFCFCFCFCFCFCFCFC0000FCFCFCFC00FCFCFCFCFCFC000000FCFC000000FCFC000000000000FCFCFC
310
FCFCFCFCFCFCFCFCFC000000FCFCFCFCFCFC000000FCFC000000000000FCFCFC00FCFC00FCFC00FC00000000FC00000000FC000000FCFC000000000000FCFCFC00FCFC00FCFC00FC00000000FC00000000FC000000FCFC000000000000FCFCFCFCFCFCFCFCFCFCFCFC000000FCFCFCFCFCFC000000FC07FCFCFCFCFCFCFCFC
310
FC0000FCFCFCFC00FCFCFCFCFCFC000000FCFC000000FC07FCFCFC070707FCFC000000000000FCFCFC00FC00000000000000FC0000000007000707070700FC0000000000000000000000FC00000000000000FC0000000007000707070700FC0000000000000000000000FC00000000000000FC000000000000000000000000
310
000000000000000000000000FC000000000000FC000000000000000000000000000000000000000000000000FC0000FCFC0000FC000000000000000000000000000000000000000000000000FC00FCFCFCFC00FC000000000000000000000000000000000000000000000000FCFC000000FCFCFC0000000000000000000000
310
00000000000000000000000000FC00FC00FCFCFCFC00000000000000000000000000000000000000000000000000FCFCFCFCFCFC000000000000000000000000000000000000000000000000000000FCFCFCFC0000000000000000000000000000000000000000000000000000000000000000000000000000000000000000
310
0000000000000000000000000000000000000000000000000000000000000000000000000000000000000000000000000000000000000000
102
{BLKREFS
331
290E7
102
}
1001
AcDbDynamicBlockGUID
1000
{9BFF754B-5C4B-455A-AC23-A3CAA2A30855}
1001
ACAD
1000
DesignCenter Data
1002
{
1070
     1
1070
     4
1002
}
  0
BLOCK_RECORD
  5
29466
102
{ACAD_XDICTIONARY
360
297F4
102
}
330
1
100
AcDbSymbolTableRecord
100
AcDbBlockTableRecord
  2
SS202ST-AB702T-DN-FV
340
0
310
2800000020000000200000000100080000000000000400000000000000000000000000000000000000000000000080000080000000808000800000008000800080800000C0C0C000C0DCC000F0CAA6000020400000206000002080000020A0000020C0000020E00000400000004020000040400000406000004080000040A0
310
000040C0000040E00000600000006020000060400000606000006080000060A0000060C0000060E00000800000008020000080400000806000008080000080A0000080C0000080E00000A0000000A0200000A0400000A0600000A0800000A0A00000A0C00000A0E00000C0000000C0200000C0400000C0600000C0800000C0
310
A00000C0C00000C0E00000E0000000E0200000E0400000E0600000E0800000E0A00000E0C00000E0E00040000000400020004000400040006000400080004000A0004000C0004000E00040200000402020004020400040206000402080004020A0004020C0004020E000404000004040200040404000404060004040800040
310
40A0004040C0004040E00040600000406020004060400040606000406080004060A0004060C0004060E00040800000408020004080400040806000408080004080A0004080C0004080E00040A0000040A0200040A0400040A0600040A0800040A0A00040A0C00040A0E00040C0000040C0200040C0400040C0600040C08000
310
40C0A00040C0C00040C0E00040E0000040E0200040E0400040E0600040E0800040E0A00040E0C00040E0E00080000000800020008000400080006000800080008000A0008000C0008000E00080200000802020008020400080206000802080008020A0008020C0008020E00080400000804020008040400080406000804080
310
008040A0008040C0008040E00080600000806020008060400080606000806080008060A0008060C0008060E00080800000808020008080400080806000808080008080A0008080C0008080E00080A0000080A0200080A0400080A0600080A0800080A0A00080A0C00080A0E00080C0000080C0200080C0400080C0600080C0
310
800080C0A00080C0C00080C0E00080E0000080E0200080E0400080E0600080E0800080E0A00080E0C00080E0E000C0000000C0002000C0004000C0006000C0008000C000A000C000C000C000E000C0200000C0202000C0204000C0206000C0208000C020A000C020C000C020E000C0400000C0402000C0404000C0406000C0
310
408000C040A000C040C000C040E000C0600000C0602000C0604000C0606000C0608000C060A000C060C000C060E000C0800000C0802000C0804000C0806000C0808000C080A000C080C000C080E000C0A00000C0A02000C0A04000C0A06000C0A08000C0A0A000C0A0C000C0A0E000C0C00000C0C02000C0C04000C0C06000
310
C0C08000C0C0A000F0FBFF00A4A0A000808080000000FF0000FF000000FFFF00FF000000FF00FF00FFFF0000FFFFFF0000000000000000000000000000000000000000000000000000000000000000000000000000000000000000000000000000000000000000000000000000000000000000000000000000000000000000
310
00000000000000000000000000000000000000000000000000000000000000000000000000000000000000000000000000000000000000000000000000000000000000000000000000000000000000000000000000000000000000000000000000000000000000000000000000000000000000000000000000000000000000
310
000000000000000000000000000000000000000000000000000000000000000000000000000000000000000000000000000000000000000000000000000000FCFCFCFCFCFC00000000000000000000000000000000000000000000000000FCFCFCFCFCFCFCFC000000000000000000000000000000000000000000000000FC
310
FCFCFCFCFCFCFC000000000000000000000000000000000000000000000000FCFCFCFCFCFCFCFC000000000000000000000000000000FCFCFCFCFC0000000000FC00FCFC00FC0000000000FCFCFCFCFC000000000000FC00000000FC00000000FC00FCFC00FC0000000000FC00000000FC00000000FC00FCFCFC00FC000000
310
00FC00FCFC00FC00000000FC00FCFCFC00FC00000000FC00FC0000FCFCFCFCFCFCFC00FCFC00FCFCFCFCFCFC00FC0000FC00FC0000FC00FC000000FCFCFCFCFCFCFC00FCFC00FCFCFCFCFCFCFC000000FC00FC000000FC00FCFCFC00FC00000000FC00FCFC00FC00000000FC00FCFCFC00FC0000000000FC00000000FC0000
310
0000FC00FCFC00FC0000000000FC00000000FC0000000000FCFCFCFCFC0000000000FC00FCFC00FC0000000000FCFCFCFCFC000000000000000000000000000000FCFCFCFCFCFCFCFC000000000000000000000000000000000000000000000000FCFCFCFCFCFCFCFC00000000000000000000000000000000000000000000
310
0000FCFCFCFCFCFCFCFC00000000000000000000000000000000000000000000000000FCFCFCFCFCFC0000000000000000000000000000000000000000000000000000000000000000000000000000000000000000000000000000000000000000000000000000000000000000000000000000000000000000000000000000
310
00000000000000000000000000000000000000000000000000000000000000000000000000000000000000000000000000000000000000000000000000000000000000000000000000000000000000000000000000000000000000000000000000000000000000000000000000000000000000000000000000000000000000
310
0000000000000000000000000000000000000000000000000000000000000000000000000000000000000000000000000000000000000000
102
{BLKREFS
331
29499
102
}
1001
AcDbDynamicBlockGUID
1000
{C2E57400-80C3-4476-8DF0-4100D7210334}
1001
ACAD
1000
DesignCenter Data
1002
{
1070
     1
1070
     4
1002
}
  0
BLOCK_RECORD
  5
2953F
102
{ACAD_XDICTIONARY
360
2995B
102
}
330
1
100
AcDbSymbolTableRecord
100
AcDbBlockTableRecord
  2
SS202VS-AB702T-DN-TV
340
0
310
2800000020000000200000000100080000000000000400000000000000000000000000000000000000000000000080000080000000808000800000008000800080800000C0C0C000C0DCC000F0CAA6000020400000206000002080000020A0000020C0000020E00000400000004020000040400000406000004080000040A0
310
000040C0000040E00000600000006020000060400000606000006080000060A0000060C0000060E00000800000008020000080400000806000008080000080A0000080C0000080E00000A0000000A0200000A0400000A0600000A0800000A0A00000A0C00000A0E00000C0000000C0200000C0400000C0600000C0800000C0
310
A00000C0C00000C0E00000E0000000E0200000E0400000E0600000E0800000E0A00000E0C00000E0E00040000000400020004000400040006000400080004000A0004000C0004000E00040200000402020004020400040206000402080004020A0004020C0004020E000404000004040200040404000404060004040800040
310
40A0004040C0004040E00040600000406020004060400040606000406080004060A0004060C0004060E00040800000408020004080400040806000408080004080A0004080C0004080E00040A0000040A0200040A0400040A0600040A0800040A0A00040A0C00040A0E00040C0000040C0200040C0400040C0600040C08000
310
40C0A00040C0C00040C0E00040E0000040E0200040E0400040E0600040E0800040E0A00040E0C00040E0E00080000000800020008000400080006000800080008000A0008000C0008000E00080200000802020008020400080206000802080008020A0008020C0008020E00080400000804020008040400080406000804080
310
008040A0008040C0008040E00080600000806020008060400080606000806080008060A0008060C0008060E00080800000808020008080400080806000808080008080A0008080C0008080E00080A0000080A0200080A0400080A0600080A0800080A0A00080A0C00080A0E00080C0000080C0200080C0400080C0600080C0
310
800080C0A00080C0C00080C0E00080E0000080E0200080E0400080E0600080E0800080E0A00080E0C00080E0E000C0000000C0002000C0004000C0006000C0008000C000A000C000C000C000E000C0200000C0202000C0204000C0206000C0208000C020A000C020C000C020E000C0400000C0402000C0404000C0406000C0
310
408000C040A000C040C000C040E000C0600000C0602000C0604000C0606000C0608000C060A000C060C000C060E000C0800000C0802000C0804000C0806000C0808000C080A000C080C000C080E000C0A00000C0A02000C0A04000C0A06000C0A08000C0A0A000C0A0C000C0A0E000C0C00000C0C02000C0C04000C0C06000
310
C0C08000C0C0A000F0FBFF00A4A0A000808080000000FF0000FF000000FFFF00FF000000FF00FF00FFFF0000FFFFFF0000000000000000000000000000000000000000000000000000000000000000000000000000000000000000000000000000000000000000000000000000000000000000000000000000000000000000
310
00000000000000000000000000000000000000000000000000000000000000000000000000000000000000000000000000000000000000000000000000000000000000000000000000000000000000000000000000000000000000000000000000000000000000000000000000000000000000000000000000000000000000
310
0000000000000000000000000000000000000000000000000000000000000000000000000000000000000000000000000000000000000000000000000000000000000000000000000000000000000000000000FCFCFCFCFCFCFC00000000000000000000000000000000070707FC07070700000000FC00FCFC000000000000
310
00000000000000000000000007FC00FC00000000FCFCFCFCFCFCFC00000000000000000000000000000000070707FC07070700000000FCFCFC0000000000000000000000000000000000000000FCFCFC000000000000FCFCFC0000000000000000000000000000000000000000FCFCFC0000000000FCFCFCFCFC0000000000
310
00000000000000000000000000FCFCFCFCFC00000000FCFCFCFCFC000000000000000000000000000000000000FCFCFCFCFC0000000000FCFCFCFCFC00000000000000000000000000000000FCFCFCFCFC000000000000FC00FCFC00FCFCFC0000FCFCFCFCFCFC0000FCFCFC0000FC00FC000000000000FC00FCFC00000000
310
FCFCFCFCFCFCFCFCFCFC00000000FCFC00FC000000000000FCFCFC00FCFC000000FC00FCFCFCFC00FC000000FCFC00FCFCFC000000000000000000000000FC0000FC00FCFCFCFC00FC0000FC00000000000000000000000000000000000000FCFCFCFCFCFCFCFCFCFCFCFC0000000000000000000000000000000000000000
310
0000FCFCFCFCFCFCFCFC000000000000000000000000000000000000000000000000000000000000000000000000000000000000000000000000000000000000000000000000000000000000000000000000000000000000000000000000000000000000000000000000000000000000000000000000000000000000000000
310
00000000000000000000000000000000000000000000000000000000000000000000000000000000000000000000000000000000000000000000000000000000000000000000000000000000000000000000000000000000000000000000000000000000000000000000000000000000000000000000000000000000000000
310
0000000000000000000000000000000000000000000000000000000000000000000000000000000000000000000000000000000000000000
102
{BLKREFS
331
2958E
102
}
1001
AcDbDynamicBlockGUID
1000
{47BFF5CF-FE19-4E35-8CDA-3E4BD1223725}
1001
ACAD
1000
DesignCenter Data
1002
{
1070
     1
1070
     4
1002
}
  0
BLOCK_RECORD
  5
298D7
102
{ACAD_XDICTIONARY
360
298D8
102
}
330
1
100
AcDbSymbolTableRecord
100
AcDbBlockTableRecord
  2
AB702T-DN
340
0
310
2800000020000000200000000100080000000000000400000000000000000000000000000000000000000000000080000080000000808000800000008000800080800000C0C0C000C0DCC000F0CAA6000020400000206000002080000020A0000020C0000020E00000400000004020000040400000406000004080000040A0
310
000040C0000040E00000600000006020000060400000606000006080000060A0000060C0000060E00000800000008020000080400000806000008080000080A0000080C0000080E00000A0000000A0200000A0400000A0600000A0800000A0A00000A0C00000A0E00000C0000000C0200000C0400000C0600000C0800000C0
310
A00000C0C00000C0E00000E0000000E0200000E0400000E0600000E0800000E0A00000E0C00000E0E00040000000400020004000400040006000400080004000A0004000C0004000E00040200000402020004020400040206000402080004020A0004020C0004020E000404000004040200040404000404060004040800040
310
40A0004040C0004040E00040600000406020004060400040606000406080004060A0004060C0004060E00040800000408020004080400040806000408080004080A0004080C0004080E00040A0000040A0200040A0400040A0600040A0800040A0A00040A0C00040A0E00040C0000040C0200040C0400040C0600040C08000
310
40C0A00040C0C00040C0E00040E0000040E0200040E0400040E0600040E0800040E0A00040E0C00040E0E00080000000800020008000400080006000800080008000A0008000C0008000E00080200000802020008020400080206000802080008020A0008020C0008020E00080400000804020008040400080406000804080
310
008040A0008040C0008040E00080600000806020008060400080606000806080008060A0008060C0008060E00080800000808020008080400080806000808080008080A0008080C0008080E00080A0000080A0200080A0400080A0600080A0800080A0A00080A0C00080A0E00080C0000080C0200080C0400080C0600080C0
310
800080C0A00080C0C00080C0E00080E0000080E0200080E0400080E0600080E0800080E0A00080E0C00080E0E000C0000000C0002000C0004000C0006000C0008000C000A000C000C000C000E000C0200000C0202000C0204000C0206000C0208000C020A000C020C000C020E000C0400000C0402000C0404000C0406000C0
310
408000C040A000C040C000C040E000C0600000C0602000C0604000C0606000C0608000C060A000C060C000C060E000C0800000C0802000C0804000C0806000C0808000C080A000C080C000C080E000C0A00000C0A02000C0A04000C0A06000C0A08000C0A0A000C0A0C000C0A0E000C0C00000C0C02000C0C04000C0C06000
310
C0C08000C0C0A000F0FBFF00A4A0A000808080000000FF0000FF000000FFFF00FF000000FF00FF00FFFF0000FFFFFF0000000000000000000000000000000000000000000000000000000000000000000000000000000000000000000000000000000000000000000000000000000000000000000000000000000000000000
310
00000000000000000000000000000000000000000000000000000000000000000000000000000000000000000000000000000000000000000000000000000000000000000000000000000000000000000000000000000000000000000000000000000000000000000000000000000000000000000000000000000000000000
310
00000000000000000000000000000000000000000000000000000000000000000000000000000000000000000000000000000000FFFF00AFAFAFAF00FFFF00000000000000000000000000000000000000000000FFFF00AF0707AF00FFFF00000000000000000000000000000000000000000000FFFF00AF0707AF00FFFF27
310
0000000000000000000000000000000000000000FCFFFFFFFFFFFFFFFFFFFF270000000000000000000000000000000000000000FCFFAFAFAFAFAFAFAFAFFF270700000000000000FD00FD000000000000000000FCFFFF000007070707FFFF2707000000FDFDFDFDFD00FEFEFEFEFEFEFEFE0000FCFFFF070707070707FFFF
310
07FDFD0707FDFDFDFDFD0707070707070707FE0000FCFFFF070707070700FFFF27FC00FD00FDFDFDFDFD00FE000007FD0007FE0000FCFFFF070707070700FFFF27FC00FD00FDFDFDFDFD00FE000007FD0007FE0000FCFFFF070707070707FFFF07FDFD0707FDFDFDFDFD0707070707070707FE0000FCFFFF000007070707FF
310
FF27FC000000FDFDFDFDFD00FEFEFEFEFEFEFEFE0000FCFFAFAFAFAFAFAFAFAFFF270700000000000000FD00FD000000000000000000FCFFFFFFFFFFAFAFAFFFFF27000000000000000000000000000000000000000000FFFF00AF0707AF00FFFF27000000000000000000000000000000000000000000FFFF00AF0707AF00
310
FFFF00000000000000000000000000000000000000000000FFFF00AFAFAFAF00FFFF000000000000000000000000000000000000000000000000000000000000000000000000000000000000000000000000000000000000000000000000000000000000000000000000000000000000000000000000000000000000000000
310
00000000000000000000000000000000000000000000000000000000000000000000000000000000000000000000000000000000000000000000000000000000000000000000000000000000000000000000000000000000000000000000000000000000000000000000000000000000000000000000000000000000000000
310
0000000000000000000000000000000000000000000000000000000000000000000000000000000000000000000000000000000000000000
102
{BLKREFS
331
2995F
331
29965
331
29966
331
29969
331
29932
331
29938
102
}
1001
AcDbBlockRepETag
1070
     1
1071
       53
1001
AcDbDynamicBlockGUID
1000
{7E20E01B-9FF2-4DC1-9EF4-DD8399FAC42E}
1001
ACAD
1000
DesignCenter Data
1002
{
1070
     1
1070
     4
1002
}
  0
ENDTAB
  0
ENDSEC
  0
SECTION
  2
BLOCKS
  0
BLOCK
  5
24
330
23
100
AcDbEntity
  8
0
100
AcDbBlockBegin
  2
*Model_Space
 70
     0
 10
0.0
 20
0.0
 30
0.0
  3
*Model_Space
  1

  0
ENDBLK
  5
25
330
23
100
AcDbEntity
  8
0
100
AcDbBlockEnd
  0
BLOCK
  5
12640
330
1263E
100
AcDbEntity
 67
     1
  8
0
100
AcDbBlockBegin
  2
*Paper_Space
 70
     0
 10
0.0
 20
0.0
 30
0.0
  3
*Paper_Space
  1

  0
ENDBLK
  5
12641
330
1263E
100
AcDbEntity
 67
     1
  8
0
100
AcDbBlockEnd
  0
BLOCK
  5
24CBD
330
24CBA
100
AcDbEntity
  8
0
100
AcDbBlockBegin
  2
S20-1Sa-SV1
 70
     0
 10
0.0
 20
0.0
 30
0.0
  3
S20-1Sa-SV1
  1

  0
ARC
  5
29820
330
24CBA
100
AcDbEntity
  8
SS-Hardware
100
AcDbCircle
 10
275.0
 20
0.0000000000004547
 30
0.0
 40
300.0
100
AcDbArc
 50
168.0903429583416
 51
191.9096570416584
1001
AcDbBlockRepETag
1070
     1
1071
        0
1005
29820
  0
ARC
  5
29821
330
24CBA
100
AcDbEntity
  8
SS-Hardware
100
AcDbCircle
 10
0.0
 20
58.00000000000046
 30
0.0
 40
18.95018235195412
100
AcDbArc
 50
11.90965704164882
 51
168.0903429583416
1001
AcDbBlockRepETag
1070
     1
1071
        1
1005
29821
  0
ARC
  5
29822
330
24CBA
100
AcDbEntity
  8
SS-Hardware
100
AcDbCircle
 10
0.0
 20
-57.99999999999954
 30
0.0
 40
18.95018235195412
100
AcDbArc
 50
191.9096570416584
 51
348.0903429583511
1001
AcDbBlockRepETag
1070
     1
1071
        2
1005
29822
  0
LWPOLYLINE
  5
29823
330
24CBA
100
AcDbEntity
  8
SS-Hardware
100
AcDbPolyline
 90
        8
 70
     1
 43
0.0
 10
42.00000000012733
 20
18.5
 10
49.00000000012732
 20
18.5
 42
-0.4142135623730951
 10
49.50000000012732
 20
18.0
 10
49.50000000012732
 20
-17.99999999999988
 42
-0.4142135623730951
 10
49.00000000012732
 20
-18.49999999999988
 10
42.00000000012733
 20
-18.49999999999988
 42
-0.4142135623730951
 10
41.50000000012733
 20
-17.99999999999988
 10
41.50000000012733
 20
18.0
 42
-0.4142135623730951
1001
AcDbBlockRepETag
1070
     1
1071
        3
1005
29823
  0
CIRCLE
  5
29824
330
24CBA
100
AcDbEntity
  8
SS-Hardware
100
AcDbCircle
 10
0.0
 20
-57.99999999999954
 30
0.0
 40
12.73930924344006
1001
AcDbBlockRepETag
1070
     1
1071
        6
1005
29824
  0
ARC
  5
29825
330
24CBA
100
AcDbEntity
  8
SS-Hardware
100
AcDbCircle
 10
-275.0
 20
0.0000000000004547
 30
0.0
 40
300.0
100
AcDbArc
 50
348.0903429583416
 51
357.6119845367311
1001
AcDbBlockRepETag
1070
     1
1071
        7
1005
29825
  0
CIRCLE
  5
29826
330
24CBA
100
AcDbEntity
  8
SS-Hardware
100
AcDbCircle
 10
0.0
 20
57.99999999999954
 30
0.0
 40
12.73930924344006
1001
AcDbBlockRepETag
1070
     1
1071
        9
1005
29826
  0
LINE
  5
29827
330
24CBA
100
AcDbEntity
  8
SS-Hardware
100
AcDbLine
 10
5.000000000126384
 20
7.644003854169707
 30
0.0
 11
-15.19906879553855
 21
7.941991758210065
 31
0.0
1001
AcDbBlockRepETag
1070
     1
1071
       10
1005
29827
  0
LINE
  5
29828
330
24CBA
100
AcDbEntity
  8
SS-Hardware
100
AcDbLine
 10
5.000000000126384
 20
-7.644003854169744
 30
0.0
 11
-14.97915761726472
 21
-7.938747506123378
 31
0.0
1001
AcDbBlockRepETag
1070
     1
1071
       11
1005
29828
  0
SPLINE
  5
29829
330
24CBA
100
AcDbEntity
  8
SS-Hardware
100
AcDbSpline
210
0.0
220
0.0
230
1.0
 70
     8
 71
     3
 72
     8
 73
     4
 74
     0
 42
0.0000000001
 43
0.0000000001
 40
0.0
 40
0.0
 40
0.0
 40
0.0
 40
9.203201220595692
 40
9.203201220595692
 40
9.203201220595692
 40
9.203201220595692
 10
42.00000000012733
 20
18.5
 30
0.0
 10
38.21686432896756
 20
16.50000000008778
 30
0.0
 10
34.60648937686278
 20
14.50000000017557
 30
0.0
 10
31.43434365432583
 20
12.50000000026336
 30
0.0
1001
AcDbBlockRepETag
1070
     1
1071
       13
1005
29829
  0
SPLINE
  5
2982A
330
24CBA
100
AcDbEntity
  8
SS-Hardware
100
AcDbSpline
210
0.0
220
0.0
230
1.0
 70
     8
 71
     3
 72
     8
 73
     4
 74
     0
 42
0.0000000001
 43
0.0000000001
 40
47.54987297476101
 40
47.54987297476101
 40
47.54987297476101
 40
47.54987297476101
 40
56.75307419616446
 40
56.75307419616446
 40
56.75307419616446
 40
56.75307419616446
 10
31.43434365349043
 20
-12.49999999973664
 30
0.0
 10
34.60648937622881
 20
-14.49999999982438
 30
0.0
 10
38.2168643286351
 20
-16.49999999991212
 30
0.0
 10
42.00000000012733
 20
-18.49999999999988
 30
0.0
1001
AcDbBlockRepETag
1070
     1
1071
       14
1005
2982A
  0
SPLINE
  5
2982B
330
24CBA
100
AcDbEntity
  8
SS-Hardware
100
AcDbSpline
210
0.0
220
0.0
230
1.0
 70
  1064
 71
     3
 72
    16
 73
    12
 74
    10
 42
0.0000000001
 43
0.0000000001
 44
0.0000000001
 40
0.0
 40
0.0
 40
0.0
 40
0.0
 40
0.2668806638427647
 40
0.4222193269053224
 40
0.7146782407659789
 40
1.650409679924882
 40
4.062167911627937
 40
6.330915585804953
 40
8.329686516549045
 40
9.662198084133041
 40
10.19730736665531
 40
10.19730736665531
 40
10.19730736665531
 40
10.19730736665531
 10
-14.97915761726472
 20
-7.938747506123378
 30
0.0
 10
-15.0693226197547
 20
-7.934468231032257
 30
0.0
 10
-15.21196842298969
 20
-7.927698191484994
 30
0.0
 10
-15.43695060240946
 20
-8.021780913732291
 30
0.0
 10
-15.76198533863223
 20
-8.359197571950543
 30
0.0
 10
-16.44530664585463
 20
-9.367987958625166
 30
0.0
 10
-16.95548480097531
 20
-11.2081577131882
 30
0.0
 10
-17.27435851609794
 20
-13.40716131250103
 30
0.0
 10
-17.35724754253585
 20
-15.2748231920593
 30
0.0
 10
-17.43102526077601
 20
-16.56126378863811
 30
0.0
 10
-17.48463871494775
 20
-17.1815285749301
 30
0.0
 10
-17.50000000040017
 20
-17.35924636210711
 30
0.0
 11
-14.97915761726472
 21
-7.938747506123378
 31
0.0
 11
-15.24576500449075
 21
-7.950821851226351
 31
0.0
 11
-15.38948095389605
 21
-8.009777988553992
 31
0.0
 11
-15.60757299004217
 21
-8.204631985346964
 31
0.0
 11
-16.14287183480519
 21
-8.972126918897515
 31
0.0
 11
-16.91491557179142
 21
-11.25697401145487
 31
0.0
 11
-17.24751816446769
 21
-13.50120918728396
 31
0.0
 11
-17.37224237169175
 21
-15.49608489913168
 31
0.0
 11
-17.45539184317204
 21
-16.82599964945882
 31
0.0
 11
-17.50000000040017
 21
-17.35924636210711
 31
0.0
1001
AcDbBlockRepETag
1070
     1
1071
       17
1005
2982B
  0
SPLINE
  5
2982C
330
24CBA
100
AcDbEntity
  8
SS-Hardware
100
AcDbSpline
210
0.0
220
0.0
230
1.0
 70
  1064
 71
     3
 72
    16
 73
    12
 74
    10
 42
0.0000000001
 43
0.0000000001
 44
0.0000000001
 40
0.0
 40
0.0
 40
0.0
 40
0.0
 40
0.2668806638427647
 40
0.4222193269053224
 40
0.7146782407659789
 40
1.650409679924882
 40
4.06216791162791
 40
6.330915585804922
 40
8.329686516549029
 40
9.662198084133011
 40
10.19730736665528
 40
10.19730736665528
 40
10.19730736665528
 40
10.19730736665528
 10
-14.97915761726472
 20
7.938747506123378
 30
0.0
 10
-15.0693226197547
 20
7.934468231032257
 30
0.0
 10
-15.21196842298969
 20
7.927698191484994
 30
0.0
 10
-15.43695060240946
 20
8.021780913732289
 30
0.0
 10
-15.76198533863223
 20
8.359197571950545
 30
0.0
 10
-16.44530664585462
 20
9.367987958625159
 30
0.0
 10
-16.95548480097532
 20
11.20815771318818
 30
0.0
 10
-17.27435851609793
 20
13.40716131250101
 30
0.0
 10
-17.35724754253584
 20
15.27482319205927
 30
0.0
 10
-17.43102526077602
 20
16.56126378863809
 30
0.0
 10
-17.48463871494775
 20
17.18152857493006
 30
0.0
 10
-17.50000000040017
 20
17.35924636210708
 30
0.0
 11
-14.97915761726472
 21
7.938747506123378
 31
0.0
 11
-15.24576500449075
 21
7.950821851226351
 31
0.0
 11
-15.38948095389605
 21
8.009777988553992
 31
0.0
 11
-15.60757299004217
 21
8.204631985346964
 31
0.0
 11
-16.14287183480519
 21
8.972126918897515
 31
0.0
 11
-16.91491557179142
 21
11.25697401145484
 31
0.0
 11
-17.24751816446769
 21
13.50120918728393
 31
0.0
 11
-17.37224237169175
 21
15.49608489913166
 31
0.0
 11
-17.45539184317204
 21
16.82599964945879
 31
0.0
 11
-17.50000000040017
 21
17.35924636210708
 31
0.0
1001
AcDbBlockRepETag
1070
     1
1071
       18
1005
2982C
  0
ARC
  5
2982D
330
24CBA
100
AcDbEntity
  8
SS-Hardware
100
AcDbCircle
 10
-275.0
 20
0.0000000000004547
 30
0.0
 40
300.0
100
AcDbArc
 50
2.3880154632687
 51
11.90965704165838
1001
AcDbBlockRepETag
1070
     1
1071
       36
1005
2982D
  0
SPLINE
  5
2982E
330
24CBA
100
AcDbEntity
  8
SS-Hardware
100
AcDbSpline
210
0.0
220
0.0
230
1.0
 70
     8
 71
     3
 72
    16
 73
    12
 74
     0
 42
0.0000000001
 43
0.0000000001
 40
5.32725267002044
 40
5.32725267002044
 40
5.32725267002044
 40
5.32725267002044
 40
6.798740777368768
 40
6.798740777368768
 40
6.798740777368768
 40
6.831778042460252
 40
6.831778042460252
 40
6.831778042460252
 40
8.329686516549035
 40
9.662198084133022
 40
10.19730736665529
 40
10.19730736665529
 40
10.19730736665529
 40
10.19730736665529
 10
14.94877466810624
 20
-12.49999999999994
 30
0.0
 10
14.91374177649658
 20
-12.98902045539873
 30
0.0
 10
14.87870888488691
 20
-13.47804091079752
 30
0.0
 10
14.84367599327724
 20
-13.96706136619631
 30
0.0
 10
14.84288944874368
 20
-13.97804065875021
 30
0.0
 10
14.84210290421013
 20
-13.98901995130412
 30
0.0
 10
14.8413223217325
 20
-13.99999999999993
 30
0.0
 10
14.80593073878133
 20
-14.49783503391746
 30
0.0
 10
14.76221468658033
 20
-15.44147205592632
 30
0.0
 10
14.69799432602632
 20
-16.56126378863808
 30
0.0
 10
14.64438087185456
 20
-17.18152857493008
 30
0.0
 10
14.62901958640214
 20
-17.35924636210708
 30
0.0
1001
AcDbBlockRepETag
1070
     1
1071
       38
1005
2982E
  0
SPLINE
  5
2982F
330
24CBA
100
AcDbEntity
  8
SS-Hardware
100
AcDbSpline
210
0.0
220
0.0
230
1.0
 70
     8
 71
     3
 72
    13
 73
     9
 74
     0
 42
0.0000000001
 43
0.0000000001
 40
6.299907480400362
 40
6.299907480400362
 40
6.299907480400362
 40
6.299907480400362
 40
7.087948456563731
 40
7.087948456563731
 40
7.087948456563731
 40
8.329686516549035
 40
9.662198084133022
 40
10.19730736665529
 40
10.19730736665529
 40
10.19730736665529
 40
10.19730736665529
 10
14.99162593912179
 20
12.50000000000006
 30
0.0
 10
14.93870806202933
 20
13.04874990768353
 30
0.0
 10
14.88887979548501
 20
13.57566943227856
 30
0.0
 10
14.85357073925408
 20
13.99999999999916
 30
0.0
 10
14.79793327837284
 20
14.66862946457234
 30
0.0
 10
14.75732649373688
 20
15.52670605160604
 30
0.0
 10
14.69799432602632
 20
16.56126378863808
 30
0.0
 10
14.64438087185456
 20
17.18152857493008
 30
0.0
 10
14.62901958640214
 20
17.35924636210708
 30
0.0
1001
AcDbBlockRepETag
1070
     1
1071
       39
1005
2982F
  0
CIRCLE
  5
29830
330
24CBA
100
AcDbEntity
  8
SS-Hardware
100
AcDbCircle
 10
0.0
 20
57.99999999999954
 30
0.0
 40
12.0
1001
AcDbBlockRepETag
1070
     1
1071
       40
1005
29830
  0
CIRCLE
  5
29831
330
24CBA
100
AcDbEntity
  8
SS-Hardware
100
AcDbCircle
 10
0.0
 20
57.99999999999954
 30
0.0
 40
12.5
1001
AcDbBlockRepETag
1070
     1
1071
       41
1005
29831
  0
CIRCLE
  5
29832
330
24CBA
100
AcDbEntity
  8
SS-Hardware
100
AcDbCircle
 10
0.0
 20
48.99999999999955
 30
0.0
 40
2.0
1001
AcDbBlockRepETag
1070
     1
1071
       42
1005
29832
  0
CIRCLE
  5
29833
330
24CBA
100
AcDbEntity
  8
SS-Hardware
100
AcDbCircle
 10
0.0
 20
66.99999999999954
 30
0.0
 40
2.0
1001
AcDbBlockRepETag
1070
     1
1071
       43
1005
29833
  0
CIRCLE
  5
29834
330
24CBA
100
AcDbEntity
  8
SS-Hardware
100
AcDbCircle
 10
0.0
 20
-57.99999999999954
 30
0.0
 40
12.0
1001
AcDbBlockRepETag
1070
     1
1071
       44
1005
29834
  0
CIRCLE
  5
29835
330
24CBA
100
AcDbEntity
  8
SS-Hardware
100
AcDbCircle
 10
0.0
 20
-57.99999999999954
 30
0.0
 40
12.5
1001
AcDbBlockRepETag
1070
     1
1071
       45
1005
29835
  0
CIRCLE
  5
29836
330
24CBA
100
AcDbEntity
  8
SS-Hardware
100
AcDbCircle
 10
0.0
 20
-66.99999999999954
 30
0.0
 40
2.0
1001
AcDbBlockRepETag
1070
     1
1071
       46
1005
29836
  0
CIRCLE
  5
29837
330
24CBA
100
AcDbEntity
  8
SS-Hardware
100
AcDbCircle
 10
0.0
 20
-48.99999999999955
 30
0.0
 40
2.0
1001
AcDbBlockRepETag
1070
     1
1071
       47
1005
29837
  0
ENDBLK
  5
24CE4
330
24CBA
100
AcDbEntity
  8
0
100
AcDbBlockEnd
  0
BLOCK
  5
290E3
330
290E2
100
AcDbEntity
  8
0
100
AcDbBlockBegin
  2
SS202T-AB702T-DN-SV
 70
     0
 10
0.0
 20
0.0
 30
0.0
  3
SS202T-AB702T-DN-SV
  1

  0
INSERT
  5
298D2
330
290E2
100
AcDbEntity
  8
SS-Hardware
100
AcDbBlockReference
  2
S20-1Sa-SV1
 10
0.0
 20
-57.99999999999954
 30
0.0
 41
-1.0
  0
INSERT
  5
29938
330
290E2
100
AcDbEntity
  8
SS-Hardware
100
AcDbBlockReference
  2
AB702T-DN
 10
-49.50000000012733
 20
-57.99999999999949
 30
0.0
 41
-1.0
 50
270.0
  0
ENDBLK
  5
290E4
330
290E2
100
AcDbEntity
  8
0
100
AcDbBlockEnd
  0
BLOCK
  5
29467
330
29466
100
AcDbEntity
  8
0
100
AcDbBlockBegin
  2
SS202ST-AB702T-DN-FV
 70
     0
 10
0.0
 20
0.0
 30
0.0
  3
SS202ST-AB702T-DN-FV
  1

  0
LINE
  5
297C0
330
29466
100
AcDbEntity
  8
SS-Hardware
100
AcDbLine
 10
-64.12267498106996
 20
-7.424115445508959
 30
0.0
 11
-24.87571818261495
 21
-7.93874750612349
 31
0.0
1001
AcDbBlockRepETag
1070
     1
1071
       33
1005
297C0
  0
LINE
  5
297C1
330
29466
100
AcDbEntity
  8
SS-Hardware
100
AcDbLine
 10
0.0
 20
-76.95018235195401
 30
0.0
 11
0.0
 21
76.95018235195401
 31
0.0
1001
AcDbBlockRepETag
1070
     1
1071
       12
1005
297C1
  0
LINE
  5
297C2
330
29466
100
AcDbEntity
  8
SS-Hardware
100
AcDbLine
 10
-5.48946986771807
 20
-76.95018235195401
 30
0.0
 11
-4.769945715339416
 21
-76.95018235195401
 31
0.0
1001
AcDbBlockRepETag
1070
     1
1071
       14
1005
297C2
  0
LINE
  5
297C3
330
29466
100
AcDbEntity
  8
SS-Hardware
100
AcDbLine
 10
-4.333312630647924
 20
-76.95018235195401
 30
0.0
 11
-0.000000000001819
 21
-76.95018235195401
 31
0.0
1001
AcDbBlockRepETag
1070
     1
1071
       15
1005
297C3
  0
ARC
  5
297C4
330
29466
100
AcDbEntity
  8
SS-Hardware
100
AcDbCircle
 10
-4.333312630647924
 20
-75.45018235195403
 30
0.0
 40
1.5
100
AcDbArc
 50
194.6411574141675
 51
270.0000000001042
1001
AcDbBlockRepETag
1070
     1
1071
       16
1005
297C4
  0
LINE
  5
297C5
330
29466
100
AcDbEntity
  8
SS-Hardware
100
AcDbLine
 10
-4.333312630647924
 20
76.95018235195449
 30
0.0
 11
-0.000000000001819
 21
76.95018235195401
 31
0.0
1001
AcDbBlockRepETag
1070
     1
1071
       22
1005
297C5
  0
ARC
  5
297C6
330
29466
100
AcDbEntity
  8
SS-Hardware
100
AcDbCircle
 10
-4.333312630647924
 20
75.45018235195449
 30
0.0
 40
1.5
100
AcDbArc
 50
89.99999999989578
 51
165.3588425858324
1001
AcDbBlockRepETag
1070
     1
1071
       23
1005
297C6
  0
ARC
  5
297C7
330
29466
100
AcDbEntity
  8
SS-Hardware
100
AcDbCircle
 10
284.4737509655515
 20
-0.0000000000145519
 30
0.0
 40
300.0
100
AcDbArc
 50
165.3588425858324
 51
166.4083772260445
1001
AcDbBlockRepETag
1070
     1
1071
       24
1005
297C7
  0
ARC
  5
297C8
330
29466
100
AcDbEntity
  8
SS-Hardware
100
AcDbCircle
 10
284.4737509655515
 20
-0.0000000000145519
 30
0.0
 40
300.0
100
AcDbArc
 50
171.2764753040663
 51
188.7235246959337
1001
AcDbBlockRepETag
1070
     1
1071
        5
1005
297C8
  0
ARC
  5
297C9
330
29466
100
AcDbEntity
  8
SS-Hardware
100
AcDbCircle
 10
284.4737509655515
 20
-0.0000000000145519
 30
0.0
 40
300.0
100
AcDbArc
 50
193.5916227739554
 51
194.6411574141944
1001
AcDbBlockRepETag
1070
     1
1071
        9
1005
297C9
  0
ARC
  5
297CA
330
29466
100
AcDbEntity
  8
SS-Hardware
100
AcDbCircle
 10
284.4737509655515
 20
-0.0000000000145519
 30
0.0
 40
300.0
100
AcDbArc
 50
194.7237151679033
 51
194.8625214221663
1001
AcDbBlockRepETag
1070
     1
1071
       25
1005
297CA
  0
ARC
  5
297CB
330
29466
100
AcDbEntity
  8
SS-Hardware
100
AcDbCircle
 10
-25.00683352629858
 20
17.93788790751023
 30
0.0
 40
10.0
100
AcDbArc
 50
270.7512571083569
 51
356.6827752452061
1001
AcDbBlockRepETag
1070
     1
1071
       26
1005
297CB
  0
ARC
  5
297CC
330
29466
100
AcDbEntity
  8
SS-Hardware
100
AcDbCircle
 10
-25.00683352629858
 20
-17.93788790750841
 30
0.0
 40
10.0
100
AcDbArc
 50
3.317224754793948
 51
89.24874289164311
1001
AcDbBlockRepETag
1070
     1
1071
       28
1005
297CC
  0
LINE
  5
297CD
330
29466
100
AcDbEntity
  8
SS-Hardware
100
AcDbLine
 10
-64.12267498106984
 20
7.424115445508959
 30
0.0
 11
-24.87571818261495
 21
7.93874750612349
 31
0.0
1001
AcDbBlockRepETag
1070
     1
1071
       32
1005
297CD
  0
CIRCLE
  5
297CE
330
29466
100
AcDbEntity
  8
SS-Hardware
100
AcDbCircle
 10
-98.32622026298125
 20
0.0
 30
0.0
 40
35.0
1001
AcDbBlockRepETag
1070
     1
1071
        3
1005
297CE
  0
LWPOLYLINE
  5
297CF
330
29466
100
AcDbEntity
  8
SS-Hardware
100
AcDbPolyline
 90
        8
 70
     0
 43
0.0
 10
-9.326231076468843
 20
70.50000000000999
 10
-5.326220263036701
 20
70.50000000000999
 10
-5.326220263036701
 20
45.50000000000999
 10
-21.8262202630367
 20
45.50000000000999
 10
-22.3262202630367
 20
46.00000000000999
 10
-22.3262202630367
 20
70.00000000000999
 10
-21.8262202630367
 20
70.50000000000999
 10
-13.32621197292667
 20
70.50000000000999
1001
AcDbBlockRepETag
1070
     1
1071
       15
1005
297CF
  0
LINE
  5
297D0
330
29466
100
AcDbEntity
  8
SS-Hardware
100
AcDbLine
 10
-21.82622026302943
 20
45.50000000000999
 30
0.0
 11
-21.82622026304398
 21
70.50000000000999
 31
0.0
1001
AcDbBlockRepETag
1070
     1
1071
       16
1005
297D0
  0
SPLINE
  5
297D1
330
29466
100
AcDbEntity
  8
SS-Hardware
100
AcDbSpline
210
0.0
220
0.0
230
1.0
 70
     8
 71
     3
 72
     9
 73
     5
 74
     0
 42
0.0000000001
 43
0.0000000001
 40
0.0
 40
0.0
 40
0.0
 40
0.0
 40
2.0063897926375
 40
4.012779585275001
 40
4.012779585275001
 40
4.012779585275001
 40
4.012779585275001
 10
-13.32622152469776
 20
70.50000114622253
 30
0.0
 10
-12.65955485803113
 20
70.42000114622259
 30
0.0
 10
-11.32622152469775
 20
70.26000114622275
 30
0.0
 10
-9.992888191364388
 20
70.42000114622259
 30
0.0
 10
-9.326221524697755
 20
70.50000114622253
 30
0.0
1001
AcDbBlockRepETag
1070
     1
1071
       17
1005
297D1
  0
LWPOLYLINE
  5
297D2
330
29466
100
AcDbEntity
  8
SS-Hardware
100
AcDbPolyline
 90
        2
 70
     0
 43
0.0
 10
0.0
 20
52.00000000001363
 10
16.04755947404192
 20
52.00000000001363
1001
AcDbBlockRepETag
1070
     1
1071
        0
1005
297D2
  0
LWPOLYLINE
  5
297D3
330
29466
100
AcDbEntity
  8
SS-Hardware
100
AcDbPolyline
 90
        2
 70
     0
 43
0.0
 10
16.04755947404192
 20
64.00000000001364
 10
0.0
 20
64.00000000001364
1001
AcDbBlockRepETag
1070
     1
1071
        6
1005
297D3
  0
LWPOLYLINE
  5
297D4
330
29466
100
AcDbEntity
  8
SS-Hardware
100
AcDbPolyline
 90
        8
 70
   128
 43
0.0
 10
25.37379055040344
 20
70.50000000000999
 10
21.3737797369713
 20
70.50000000000999
 10
21.3737797369713
 20
45.50000000000999
 10
37.8737797369713
 20
45.50000000000999
 10
38.3737797369713
 20
46.00000000000999
 10
38.3737797369713
 20
70.00000000000999
 10
37.8737797369713
 20
70.50000000000999
 10
29.37377144686128
 20
70.50000000000999
1001
AcDbBlockRepETag
1070
     1
1071
       12
1005
297D4
  0
LINE
  5
297D5
330
29466
100
AcDbEntity
  8
SS-Hardware
100
AcDbLine
 10
37.87377973696403
 20
45.50000000000999
 30
0.0
 11
37.87377973697858
 21
70.50000000000999
 31
0.0
1001
AcDbBlockRepETag
1070
     1
1071
       13
1005
297D5
  0
SPLINE
  5
297D6
330
29466
100
AcDbEntity
  8
SS-Hardware
100
AcDbSpline
210
0.0
220
0.0
230
1.0
 70
  1064
 71
     3
 72
     9
 73
     5
 74
     3
 42
0.0000000001
 43
0.0000000001
 44
0.0000000001
 40
0.0
 40
0.0
 40
0.0
 40
0.0
 40
2.006389792637512
 40
4.012779585275003
 40
4.012779585275003
 40
4.012779585275003
 40
4.012779585275003
 10
29.37378099863236
 20
70.50000114622253
 30
0.0
 10
28.70711433196569
 20
70.4200011462226
 30
0.0
 10
27.37378099863235
 20
70.26000114622272
 30
0.0
 10
26.04044766529903
 20
70.4200011462226
 30
0.0
 10
25.37378099863236
 20
70.50000114622253
 30
0.0
 11
29.37378099863236
 21
70.50000114622253
 31
0.0
 11
27.37378099863235
 21
70.34000114622266
 31
0.0
 11
25.37378099863236
 21
70.50000114622253
 31
0.0
1001
AcDbBlockRepETag
1070
     1
1071
       14
1005
297D6
  0
LWPOLYLINE
  5
297D7
330
29466
100
AcDbEntity
  8
SS-Hardware
100
AcDbPolyline
 90
        8
 70
   128
 43
0.0
 10
-9.326231076468843
 20
-70.50000000000999
 10
-5.326220263036701
 20
-70.50000000000999
 10
-5.326220263036701
 20
-45.50000000000999
 10
-21.8262202630367
 20
-45.50000000000999
 10
-22.3262202630367
 20
-46.00000000000999
 10
-22.3262202630367
 20
-70.00000000000999
 10
-21.8262202630367
 20
-70.50000000000999
 10
-13.32621197292667
 20
-70.50000000000999
1001
AcDbBlockRepETag
1070
     1
1071
       18
1005
297D7
  0
LINE
  5
297D8
330
29466
100
AcDbEntity
  8
SS-Hardware
100
AcDbLine
 10
-21.82622026302943
 20
-45.50000000000999
 30
0.0
 11
-21.82622026304398
 21
-70.50000000000999
 31
0.0
1001
AcDbBlockRepETag
1070
     1
1071
       19
1005
297D8
  0
SPLINE
  5
297D9
330
29466
100
AcDbEntity
  8
SS-Hardware
100
AcDbSpline
210
0.0
220
0.0
230
1.0
 70
  1064
 71
     3
 72
     9
 73
     5
 74
     3
 42
0.0000000001
 43
0.0000000001
 44
0.0000000001
 40
0.0
 40
0.0
 40
0.0
 40
0.0
 40
2.00638979263751
 40
4.012779585275007
 40
4.012779585275007
 40
4.012779585275007
 40
4.012779585275007
 10
-13.32622152469776
 20
-70.50000114622253
 30
0.0
 10
-12.65955485803109
 20
-70.42000114622259
 30
0.0
 10
-11.32622152469775
 20
-70.26000114622272
 30
0.0
 10
-9.992888191364421
 20
-70.4200011462226
 30
0.0
 10
-9.326221524697755
 20
-70.50000114622253
 30
0.0
 11
-13.32622152469776
 21
-70.50000114622253
 31
0.0
 11
-11.32622152469775
 21
-70.34000114622266
 31
0.0
 11
-9.326221524697755
 21
-70.50000114622253
 31
0.0
1001
AcDbBlockRepETag
1070
     1
1071
       20
1005
297D9
  0
LWPOLYLINE
  5
297DA
330
29466
100
AcDbEntity
  8
SS-Hardware
100
AcDbPolyline
 90
        2
 70
     0
 43
0.0
 10
0.0
 20
-52.00000000001363
 10
16.04755947404192
 20
-52.00000000001363
1001
AcDbBlockRepETag
1070
     1
1071
        7
1005
297DA
  0
LWPOLYLINE
  5
297DB
330
29466
100
AcDbEntity
  8
SS-Hardware
100
AcDbPolyline
 90
        2
 70
     0
 43
0.0
 10
16.04755947404192
 20
-64.00000000001364
 10
0.0
 20
-64.00000000001364
1001
AcDbBlockRepETag
1070
     1
1071
        8
1005
297DB
  0
LWPOLYLINE
  5
297DC
330
29466
100
AcDbEntity
  8
SS-Hardware
100
AcDbPolyline
 90
        8
 70
     0
 43
0.0
 10
25.37379055040344
 20
-70.50000000000999
 10
21.3737797369713
 20
-70.50000000000999
 10
21.3737797369713
 20
-45.50000000000999
 10
37.8737797369713
 20
-45.50000000000999
 10
38.3737797369713
 20
-46.00000000000999
 10
38.3737797369713
 20
-70.00000000000999
 10
37.8737797369713
 20
-70.50000000000999
 10
29.37377144686128
 20
-70.50000000000999
1001
AcDbBlockRepETag
1070
     1
1071
       10
1005
297DC
  0
LINE
  5
297DD
330
29466
100
AcDbEntity
  8
SS-Hardware
100
AcDbLine
 10
37.87377973696403
 20
-45.50000000000999
 30
0.0
 11
37.87377973697858
 21
-70.50000000000999
 31
0.0
1001
AcDbBlockRepETag
1070
     1
1071
       11
1005
297DD
  0
SPLINE
  5
297DE
330
29466
100
AcDbEntity
  8
SS-Hardware
100
AcDbSpline
210
0.0
220
0.0
230
1.0
 70
     8
 71
     3
 72
     9
 73
     5
 74
     0
 42
0.0000000001
 43
0.0000000001
 40
0.0
 40
0.0
 40
0.0
 40
0.0
 40
2.0063897926375
 40
4.012779585275001
 40
4.012779585275001
 40
4.012779585275001
 40
4.012779585275001
 10
29.37378099863236
 20
-70.50000114622253
 30
0.0
 10
28.70711433196574
 20
-70.42000114622259
 30
0.0
 10
27.37378099863235
 20
-70.26000114622275
 30
0.0
 10
26.04044766529899
 20
-70.42000114622259
 30
0.0
 10
25.37378099863236
 20
-70.50000114622253
 30
0.0
1001
AcDbBlockRepETag
1070
     1
1071
       17
1005
297DE
  0
LINE
  5
297DF
330
29466
100
AcDbEntity
  8
SS-Hardware
100
AcDbLine
 10
80.17023445511188
 20
-7.424115445508959
 30
0.0
 11
40.92327765665686
 21
-7.93874750612349
 31
0.0
1001
AcDbBlockRepETag
1070
     1
1071
       33
1005
297DF
  0
LINE
  5
297E0
330
29466
100
AcDbEntity
  8
SS-Hardware
100
AcDbLine
 10
16.04755947404192
 20
-76.95018235195401
 30
0.0
 11
16.04755947404192
 21
76.95018235195401
 31
0.0
1001
AcDbBlockRepETag
1070
     1
1071
       12
1005
297E0
  0
LINE
  5
297E1
330
29466
100
AcDbEntity
  8
SS-Hardware
100
AcDbLine
 10
21.53702934175999
 20
-76.95018235195401
 30
0.0
 11
20.81750518938134
 21
-76.95018235195401
 31
0.0
1001
AcDbBlockRepETag
1070
     1
1071
       14
1005
297E1
  0
LINE
  5
297E2
330
29466
100
AcDbEntity
  8
SS-Hardware
100
AcDbLine
 10
20.38087210468984
 20
-76.95018235195401
 30
0.0
 11
16.04755947404373
 21
-76.95018235195401
 31
0.0
1001
AcDbBlockRepETag
1070
     1
1071
       15
1005
297E2
  0
ARC
  5
297E3
330
29466
100
AcDbEntity
  8
SS-Hardware
100
AcDbCircle
 10
20.38087210468984
 20
-75.45018235195403
 30
0.0
 40
1.5
100
AcDbArc
 50
269.9999999998958
 51
345.3588425858324
1001
AcDbBlockRepETag
1070
     1
1071
       16
1005
297E3
  0
LINE
  5
297E4
330
29466
100
AcDbEntity
  8
SS-Hardware
100
AcDbLine
 10
20.38087210468984
 20
76.95018235195449
 30
0.0
 11
16.04755947404373
 21
76.95018235195401
 31
0.0
1001
AcDbBlockRepETag
1070
     1
1071
       22
1005
297E4
  0
ARC
  5
297E5
330
29466
100
AcDbEntity
  8
SS-Hardware
100
AcDbCircle
 10
20.38087210468984
 20
75.45018235195449
 30
0.0
 40
1.5
100
AcDbArc
 50
14.64115741416756
 51
90.0000000001042
1001
AcDbBlockRepETag
1070
     1
1071
       23
1005
297E5
  0
ARC
  5
297E6
330
29466
100
AcDbEntity
  8
SS-Hardware
100
AcDbCircle
 10
-268.4261914915096
 20
-0.0000000000145519
 30
0.0
 40
300.0
100
AcDbArc
 50
13.59162277395544
 51
14.64115741416756
1001
AcDbBlockRepETag
1070
     1
1071
       24
1005
297E6
  0
ARC
  5
297E7
330
29466
100
AcDbEntity
  8
SS-Hardware
100
AcDbCircle
 10
-268.4261914915096
 20
-0.0000000000145519
 30
0.0
 40
300.0
100
AcDbArc
 50
351.2764753040663
 51
8.723524695933713
1001
AcDbBlockRepETag
1070
     1
1071
        5
1005
297E7
  0
ARC
  5
297E8
330
29466
100
AcDbEntity
  8
SS-Hardware
100
AcDbCircle
 10
-268.4261914915096
 20
-0.0000000000145519
 30
0.0
 40
300.0
100
AcDbArc
 50
345.3588425858056
 51
346.4083772260446
1001
AcDbBlockRepETag
1070
     1
1071
        9
1005
297E8
  0
ARC
  5
297E9
330
29466
100
AcDbEntity
  8
SS-Hardware
100
AcDbCircle
 10
-268.4261914915096
 20
-0.0000000000145519
 30
0.0
 40
300.0
100
AcDbArc
 50
345.1374785778337
 51
345.2762848320968
1001
AcDbBlockRepETag
1070
     1
1071
       25
1005
297E9
  0
ARC
  5
297EA
330
29466
100
AcDbEntity
  8
SS-Hardware
100
AcDbCircle
 10
41.05439300034047
 20
17.93788790751023
 30
0.0
 40
10.0
100
AcDbArc
 50
183.3172247547939
 51
269.2487428916432
1001
AcDbBlockRepETag
1070
     1
1071
       26
1005
297EA
  0
ARC
  5
297EB
330
29466
100
AcDbEntity
  8
SS-Hardware
100
AcDbCircle
 10
41.05439300034047
 20
-17.93788790750841
 30
0.0
 40
10.0
100
AcDbArc
 50
90.7512571083569
 51
176.682775245206
1001
AcDbBlockRepETag
1070
     1
1071
       28
1005
297EB
  0
LINE
  5
297EC
330
29466
100
AcDbEntity
  8
SS-Hardware
100
AcDbLine
 10
80.17023445511176
 20
7.424115445508959
 30
0.0
 11
40.92327765665686
 21
7.93874750612349
 31
0.0
1001
AcDbBlockRepETag
1070
     1
1071
       32
1005
297EC
  0
CIRCLE
  5
297ED
330
29466
100
AcDbEntity
  8
SS-Hardware
100
AcDbCircle
 10
114.3737797370231
 20
0.0
 30
0.0
 40
35.0
1001
AcDbBlockRepETag
1070
     1
1071
        3
1005
297ED
  0
CIRCLE
  5
297EE
330
29466
100
AcDbEntity
  8
SS-Hardware
100
AcDbCircle
 10
97.373779737014
 20
-0.0000000000004547
 30
0.0
 40
2.0
  0
CIRCLE
  5
297EF
330
29466
100
AcDbEntity
  8
SS-Hardware
100
AcDbCircle
 10
131.3737797370331
 20
-0.0000000000004547
 30
0.0
 40
2.0
  0
CIRCLE
  5
297F0
330
29466
100
AcDbEntity
  8
SS-Hardware
100
AcDbCircle
 10
114.3737797370231
 20
0.0
 30
0.0
 40
20.00000000000358
  0
CIRCLE
  5
297F1
330
29466
100
AcDbEntity
  8
SS-Hardware
100
AcDbCircle
 10
-115.3262202629903
 20
-0.0000000000004547
 30
0.0
 40
2.0
  0
CIRCLE
  5
297F2
330
29466
100
AcDbEntity
  8
SS-Hardware
100
AcDbCircle
 10
-81.32622026297122
 20
-0.0000000000004547
 30
0.0
 40
2.0
  0
CIRCLE
  5
297F3
330
29466
100
AcDbEntity
  8
SS-Hardware
100
AcDbCircle
 10
-98.32622026298125
 20
0.0
 30
0.0
 40
20.00000000000358
  0
ENDBLK
  5
29468
330
29466
100
AcDbEntity
  8
0
100
AcDbBlockEnd
  0
BLOCK
  5
29540
330
2953F
100
AcDbEntity
  8
0
100
AcDbBlockBegin
  2
SS202VS-AB702T-DN-TV
 70
     0
 10
0.0
 20
0.0
 30
0.0
  3
SS202VS-AB702T-DN-TV
  1

  0
LWPOLYLINE
  5
2993D
330
2953F
100
AcDbEntity
  8
SS-Hardware
100
AcDbPolyline
 90
        8
 70
   128
 43
0.0
 10
-11.00001081348637
 20
-12.64712462034026
 10
-7.000000000054567
 20
-12.64712462034026
 10
-7.000000000054567
 20
12.35287537965973
 10
-23.50000000005457
 20
12.35287537965973
 10
-24.00000000005457
 20
11.85287537965973
 10
-24.00000000005457
 20
-12.14712462034026
 10
-23.50000000005457
 20
-12.64712462034026
 10
-14.99999170994488
 20
-12.64712462034026
1001
AcDbBlockRepETag
1070
     1
1071
        9
1005
2993D
  0
LINE
  5
2993E
330
2953F
100
AcDbEntity
  8
SS-Hardware
100
AcDbLine
 10
-23.5000000000473
 20
12.35287537965973
 30
0.0
 11
-23.50000000006184
 21
-12.64712462034026
 31
0.0
1001
AcDbBlockRepETag
1070
     1
1071
        7
1005
2993E
  0
SPLINE
  5
2993F
330
2953F
100
AcDbEntity
  8
SS-Hardware
100
AcDbSpline
210
0.0
220
0.0
230
1.0
 70
  1064
 71
     3
 72
     9
 73
     5
 74
     3
 42
0.0000000001
 43
0.0000000001
 44
0.0000000001
 40
0.0
 40
0.0
 40
0.0
 40
0.0
 40
2.006389792637501
 40
4.012779585275002
 40
4.012779585275002
 40
4.012779585275002
 40
4.012779585275002
 10
-15.00000126171562
 20
-12.64712576655279
 30
0.0
 10
-14.33333459504895
 20
-12.56712576655286
 30
0.0
 10
-13.00000126171562
 20
-12.407125766553
 30
0.0
 10
-11.66666792838228
 20
-12.56712576655286
 30
0.0
 10
-11.00000126171562
 20
-12.64712576655279
 30
0.0
 11
-15.00000126171562
 21
-12.64712576655279
 31
0.0
 11
-13.00000126171562
 21
-12.48712576655293
 31
0.0
 11
-11.00000126171562
 21
-12.64712576655279
 31
0.0
1001
AcDbBlockRepETag
1070
     1
1071
       17
1005
2993F
  0
LWPOLYLINE
  5
29940
330
2953F
100
AcDbEntity
  8
SS-Hardware
100
AcDbPolyline
 90
        2
 70
     0
 43
0.0
 10
0.0000000000009095
 20
5.852875379655753
 10
12.70000000000073
 20
5.852875379656097
1001
AcDbBlockRepETag
1070
     1
1071
       32
1005
29940
  0
LWPOLYLINE
  5
29941
330
2953F
100
AcDbEntity
  8
SS-Hardware
100
AcDbPolyline
 90
        2
 70
     0
 43
0.0
 10
12.70000000000073
 20
-6.147124620344584
 10
0.0000000000009095
 20
-6.147124620344584
1001
AcDbBlockRepETag
1070
     1
1071
       39
1005
29941
  0
LINE
  5
29942
330
2953F
100
AcDbEntity
  8
SS-Hardware
100
AcDbLine
 10
-19.13114801983465
 20
-17.14986197056396
 30
0.0
 11
-17.02624903444848
 21
-17.14986197056487
 31
0.0
1001
AcDbBlockRepETag
1070
     1
1071
        2
1005
29942
  0
LINE
  5
29943
330
2953F
100
AcDbEntity
  8
SS-Hardware
100
AcDbLine
 10
-23.50000000009822
 20
-17.14986197056396
 30
0.0
 11
-17.02624903444848
 21
-17.14986197056396
 31
0.0
1001
AcDbBlockRepETag
1070
     1
1071
        3
1005
29943
  0
LWPOLYLINE
  5
29944
330
2953F
100
AcDbEntity
  8
SS-Hardware
100
AcDbPolyline
 90
        5
 70
   128
 43
0.0
 10
-15.52624903444848
 20
18.99999999910096
 42
-0.4142135624596705
 10
-17.02624903489232
 20
17.49999999910096
 10
-17.95086718994935
 20
17.49999999937381
 42
0.0894664528370922
 10
-31.92630080267282
 20
14.97915761621289
 42
0.1489655125863837
 10
-87.49999999999543
 20
-27.50297233607915
 42
0.1489655125863837
1001
AcDbBlockRepETag
1070
     1
1071
        5
1005
0
  0
LWPOLYLINE
  5
29945
330
2953F
100
AcDbEntity
  8
SS-Hardware
100
AcDbPolyline
 90
        3
 70
   128
 43
0.0
 10
-86.39757138069944
 20
-49.50000000050431
 42
0.2389318825230342
 10
-78.33297932564801
 20
-45.41289734789279
 42
-0.2353129794245049
 10
-23.49999999994907
 20
-17.14986197056214
1001
AcDbBlockRepETag
1070
     1
1071
        7
1005
0
  0
LWPOLYLINE
  5
29946
330
2953F
100
AcDbEntity
  8
SS-Hardware
100
AcDbPolyline
 90
        6
 70
   128
 43
0.0
 10
-86.39771466686397
 20
-49.49999999947772
 10
-117.9999999973079
 20
-49.50000000177032
 42
-0.4142135623730951
 10
-118.4999999973079
 20
-49.0000000017685
 10
-118.4999999999963
 20
-41.99999999907823
 42
-0.4142135623730951
 10
-118.0
 20
-41.49999999907822
 10
-109.4999999999963
 20
-41.49999999907822
1001
AcDbBlockRepETag
1070
     1
1071
        9
1005
0
  0
LWPOLYLINE
  5
29947
330
2953F
100
AcDbEntity
  8
SS-Hardware
100
AcDbPolyline
 90
        8
 70
   128
 43
0.0
 10
-15.52624903444848
 20
12.35287537965973
 10
-15.52624903444848
 20
22.26713246137706
 42
-0.3888787318531213
 10
-14.15698264857019
 20
23.76142450851467
 10
0.0
 20
24.99999999999864
 10
0.0
 20
-24.99999999999864
 10
-14.15698264857019
 20
-23.76142450851558
 42
-0.3888787318531213
 10
-15.52624903444848
 20
-22.26713246137797
 10
-15.52624903444848
 20
-12.64712462034026
1001
AcDbBlockRepETag
1070
     1
1071
       29
1005
0
  0
ARC
  5
29948
330
2953F
100
AcDbEntity
  8
SS-Hardware
100
AcDbCircle
 10
-17.02624903444848
 20
-18.64986197056396
 30
0.0
 40
1.5
100
AcDbArc
 50
0.0
 51
90.0
1001
AcDbBlockRepETag
1070
     1
1071
       33
1005
29948
  0
ELLIPSE
  5
29949
330
2953F
100
AcDbEntity
  8
SS-Hardware
100
AcDbEllipse
 10
-9.068513855670973
 20
-0.0000000000004547
 30
0.0
 11
0.0000000000000019
 21
18.54226482122624
 31
0.0
210
0.0
220
0.0
230
-1.0
 40
0.1930208646283586
 41
0.1454683415929456
 42
2.996124311996844
1001
AcDbBlockRepETag
1070
     1
1071
       35
1005
29949
  0
LINE
  5
2994A
330
2953F
100
AcDbEntity
  8
SS-Hardware
100
AcDbLine
 10
-15.09799843485416
 20
23.31658623488465
 30
0.0
 11
-8.549710525783666
 21
18.34642374796431
 31
0.0
1001
AcDbBlockRepETag
1070
     1
1071
       36
1005
2994A
  0
LINE
  5
2994B
330
2953F
100
AcDbEntity
  8
SS-Hardware
100
AcDbLine
 10
-15.09799843485416
 20
-23.31658623488556
 30
0.0
 11
-8.549710525783666
 21
-18.34642374796522
 31
0.0
1001
AcDbBlockRepETag
1070
     1
1071
       37
1005
2994B
  0
LWPOLYLINE
  5
2994C
330
2953F
100
AcDbEntity
  8
SS-Hardware
100
AcDbPolyline
 90
        8
 70
   128
 43
0.0
 10
23.7000108134871
 20
-12.64712462034026
 10
19.7000000000553
 20
-12.64712462034026
 10
19.7000000000553
 20
12.35287537965973
 10
36.2000000000553
 20
12.35287537965973
 10
36.7000000000553
 20
11.85287537965973
 10
36.7000000000553
 20
-12.14712462034026
 10
36.2000000000553
 20
-12.64712462034026
 10
27.69999170994561
 20
-12.64712462034026
1001
AcDbBlockRepETag
1070
     1
1071
        9
1005
2994C
  0
LINE
  5
2994D
330
2953F
100
AcDbEntity
  8
SS-Hardware
100
AcDbLine
 10
36.20000000004802
 20
12.35287537965973
 30
0.0
 11
36.20000000006257
 21
-12.64712462034026
 31
0.0
1001
AcDbBlockRepETag
1070
     1
1071
        7
1005
2994D
  0
SPLINE
  5
2994E
330
2953F
100
AcDbEntity
  8
SS-Hardware
100
AcDbSpline
210
0.0
220
0.0
230
1.0
 70
     8
 71
     3
 72
     9
 73
     5
 74
     0
 42
0.0000000001
 43
0.0000000001
 40
0.0
 40
0.0
 40
0.0
 40
0.0
 40
2.006389792637504
 40
4.012779585275008
 40
4.012779585275008
 40
4.012779585275008
 40
4.012779585275008
 10
27.70000126171635
 20
-12.64712576655279
 30
0.0
 10
27.03333459505029
 20
-12.56712576655286
 30
0.0
 10
25.70000126171726
 20
-12.40712576655289
 30
0.0
 10
24.36666792838332
 20
-12.56712576655286
 30
0.0
 10
23.70000126171635
 20
-12.64712576655279
 30
0.0
1001
AcDbBlockRepETag
1070
     1
1071
       17
1005
2994E
  0
LINE
  5
2994F
330
2953F
100
AcDbEntity
  8
SS-Hardware
100
AcDbLine
 10
31.83114801983538
 20
-17.14986197056396
 30
0.0
 11
29.72624903444921
 21
-17.14986197056487
 31
0.0
1001
AcDbBlockRepETag
1070
     1
1071
        2
1005
2994F
  0
LINE
  5
29950
330
2953F
100
AcDbEntity
  8
SS-Hardware
100
AcDbLine
 10
36.20000000009895
 20
-17.14986197056396
 30
0.0
 11
29.72624903444921
 21
-17.14986197056396
 31
0.0
1001
AcDbBlockRepETag
1070
     1
1071
        3
1005
29950
  0
LWPOLYLINE
  5
29951
330
2953F
100
AcDbEntity
  8
SS-Hardware
100
AcDbPolyline
 90
        5
 70
   128
 43
0.0
 10
28.22624903444921
 20
18.99999999910096
 42
0.4142135624596694
 10
29.72624903489304
 20
17.49999999910096
 10
30.65086718995008
 20
17.49999999937381
 42
-0.0894664528370922
 10
44.62630080267354
 20
14.97915761621289
 42
-0.1489655125863838
 10
100.1999999999962
 20
-27.50297233607921
 42
-0.1489655125863838
1001
AcDbBlockRepETag
1070
     1
1071
        5
1005
0
  0
LWPOLYLINE
  5
29952
330
2953F
100
AcDbEntity
  8
SS-Hardware
100
AcDbPolyline
 90
        3
 70
   128
 43
0.0
 10
99.0975713807002
 20
-49.50000000050431
 42
-0.2389318825230342
 10
91.03297932564872
 20
-45.41289734789279
 42
0.2353129794245049
 10
36.1999999999498
 20
-17.14986197056214
1001
AcDbBlockRepETag
1070
     1
1071
        7
1005
0
  0
LWPOLYLINE
  5
29953
330
2953F
100
AcDbEntity
  8
SS-Hardware
100
AcDbPolyline
 90
        6
 70
   128
 43
0.0
 10
99.09771466686471
 20
-49.49999999947772
 10
130.6999999973086
 20
-49.50000000177032
 42
0.4142135623730951
 10
131.1999999973086
 20
-49.0000000017685
 10
131.1999999999971
 20
-41.99999999907823
 42
0.4142135623730951
 10
130.7000000000007
 20
-41.49999999907822
 10
122.1999999999971
 20
-41.49999999907822
1001
AcDbBlockRepETag
1070
     1
1071
        9
1005
0
  0
LWPOLYLINE
  5
29954
330
2953F
100
AcDbEntity
  8
SS-Hardware
100
AcDbPolyline
 90
        8
 70
   128
 43
0.0
 10
28.22624903444921
 20
12.35287537965973
 10
28.22624903444921
 20
22.26713246137706
 42
0.3888787318531213
 10
26.85698264857093
 20
23.76142450851467
 10
12.70000000000073
 20
24.99999999999864
 10
12.70000000000073
 20
-24.99999999999864
 10
26.85698264857093
 20
-23.76142450851558
 42
0.3888787318531213
 10
28.22624903444921
 20
-22.26713246137797
 10
28.22624903444921
 20
-12.64712462034026
1001
AcDbBlockRepETag
1070
     1
1071
       29
1005
0
  0
ARC
  5
29955
330
2953F
100
AcDbEntity
  8
SS-Hardware
100
AcDbCircle
 10
29.72624903444921
 20
-18.64986197056396
 30
0.0
 40
1.5
100
AcDbArc
 50
90.0
 51
180.0
1001
AcDbBlockRepETag
1070
     1
1071
       33
1005
29955
  0
ELLIPSE
  5
29956
330
2953F
100
AcDbEntity
  8
SS-Hardware
100
AcDbEllipse
 10
21.7685138556717
 20
-0.0000000000004547
 30
0.0
 11
-0.0000000000000005
 21
18.54226482122618
 31
0.0
210
0.0
220
0.0
230
1.0
 40
0.1930208646283592
 41
0.1454683415929452
 42
2.996124311996846
1001
AcDbBlockRepETag
1070
     1
1071
       35
1005
29956
  0
LINE
  5
29957
330
2953F
100
AcDbEntity
  8
SS-Hardware
100
AcDbLine
 10
27.79799843485489
 20
23.31658623488465
 30
0.0
 11
21.24971052578439
 21
18.34642374796431
 31
0.0
1001
AcDbBlockRepETag
1070
     1
1071
       36
1005
29957
  0
LINE
  5
29958
330
2953F
100
AcDbEntity
  8
SS-Hardware
100
AcDbLine
 10
27.79799843485489
 20
-23.31658623488556
 30
0.0
 11
21.24971052578439
 21
-18.34642374796522
 31
0.0
1001
AcDbBlockRepETag
1070
     1
1071
       37
1005
29958
  0
INSERT
  5
29965
330
2953F
100
AcDbEntity
  8
SS-Hardware
100
AcDbBlockReference
  2
AB702T-DN
 10
-99.99999999999545
 20
-49.50000000012721
 30
0.0
 41
-1.0
  0
INSERT
  5
29966
330
2953F
100
AcDbEntity
  8
SS-Hardware
100
AcDbBlockReference
  2
AB702T-DN
 10
112.6999999999962
 20
-49.50000000012721
 30
0.0
 41
-1.0
  0
ENDBLK
  5
2955F
330
2953F
100
AcDbEntity
  8
0
100
AcDbBlockEnd
  0
BLOCK
  5
298DA
330
298D7
100
AcDbEntity
  8
0
100
AcDbBlockBegin
  2
AB702T-DN
 70
     0
 10
0.0
 20
0.0
 30
0.0
  3
AB702T-DN
  1

  0
HATCH
  5
298DB
330
298D7
100
AcDbEntity
  8
SS-Hardware
370
     5
100
AcDbHatch
 10
0.0
 20
0.0
 30
0.0
210
0.0
220
0.0
230
1.0
  2
ANSI31
 70
     0
 71
     0
 91
        2
 92
        1
 93
        4
 72
     1
 10
23.81249963162827
 20
-72.07369120762837
 11
34.99999963163532
 21
-72.07369122600176
 72
     1
 10
34.99999963163532
 20
-72.07369122600176
 11
34.99999963163532
 21
-72.32369122600141
 72
     1
 10
34.99999963163532
 20
-72.32369122600141
 11
23.81249963162827
 21
-72.32369120762803
 72
     1
 10
23.81249963162827
 20
-72.32369120762803
 11
23.81249963162827
 21
-72.07369120762837
 97
        0
 92
        1
 93
        2
 72
     1
 10
30.44999977632142
 20
-72.07369120762837
 11
28.44999977632961
 21
-72.07369120762837
 72
     2
 10
29.44999977632551
 20
-72.07369123743069
 40
0.9999999999959076
 50
-179.9999982924527
 51
-0.0000017075472925
 73
     0
 97
        0
 75
     0
 76
     1
 52
180.0
 41
1.0
 77
     0
 78
     1
 53
134.9999999999999
 43
1781.166680136817
 44
774.6551106414256
 45
0.0883883476483185
 46
0.0883883476483184
 79
     0
 98
        2
 10
29.05421163031997
 20
-72.22652838953229
 10
29.10736938626769
 20
-71.7711799995551
1001
ACAD
1010
0.0
1020
0.0
1030
0.0
  0
LWPOLYLINE
  5
298DC
330
298D7
100
AcDbEntity
  8
SS-Hardware
370
     5
100
AcDbPolyline
 90
        6
 70
     0
 43
0.0
 10
30.44999977632142
 20
-72.07369120762837
 10
34.99999963163532
 20
-72.07369122600176
 10
34.99999963163532
 20
-72.32369122600141
 10
23.81249963162827
 20
-72.32369122600141
 10
23.81249963162827
 20
-72.07369122600176
 10
28.44999977632961
 20
-72.07369120762837
  0
ARC
  5
298DD
330
298D7
100
AcDbEntity
  8
SS-Hardware
100
AcDbCircle
 10
29.44999977632551
 20
-72.07369123697105
 30
0.0
 40
0.9999999999959072
100
AcDbArc
 50
0.0000016812120962
 51
179.9999983187879
  0
HATCH
  5
298DE
330
298D7
100
AcDbEntity
  8
SS-Hardware
370
     5
100
AcDbHatch
 10
0.0
 20
0.0
 30
0.0
210
0.0
220
0.0
230
1.0
  2
ANSI31
 70
     0
 71
     0
 91
        2
 92
        1
 93
        4
 72
     1
 10
-23.81249999999363
 20
-59.37369128861814
 11
-35.00000000000068
 21
-59.37369127024476
 72
     1
 10
-35.00000000000068
 20
-59.37369127024476
 11
-35.00000000000068
 21
-59.1236912702451
 72
     1
 10
-35.00000000000068
 20
-59.1236912702451
 11
-23.81249999999363
 21
-59.12369128861849
 72
     1
 10
-23.81249999999363
 20
-59.12369128861849
 11
-23.81249999999363
 21
-59.37369128861814
 97
        0
 92
        1
 93
        2
 72
     1
 10
-30.45000014468679
 20
-59.37369128861814
 11
-28.45000014469497
 21
-59.37369128861814
 72
     2
 10
-29.45000014469087
 20
-59.37369125881582
 40
0.9999999999959076
 50
0.0000017075472925
 51
179.9999982924527
 73
     0
 97
        0
 75
     0
 76
     1
 52
0.0
 41
1.0
 77
     0
 78
     1
 53
315.0
 43
-1781.166680505182
 44
-906.1024931376723
 45
-0.0883883476483185
 46
-0.0883883476483184
 79
     0
 98
        2
 10
-29.05421199868533
 20
-59.22085410671423
 10
-29.10736975463306
 20
-59.67620249669142
1001
ACAD
1010
0.0
1020
0.0
1030
0.0
  0
LWPOLYLINE
  5
298DF
330
298D7
100
AcDbEntity
  8
SS-Hardware
370
     5
100
AcDbPolyline
 90
        6
 70
     0
 43
0.0
 10
-30.45000014468679
 20
-59.37369128861814
 10
-35.00000000000068
 20
-59.37369127024476
 10
-35.00000000000068
 20
-59.1236912702451
 10
-23.81249999999363
 20
-59.1236912702451
 10
-23.81249999999363
 20
-59.37369127024476
 10
-28.45000014469497
 20
-59.37369128861814
  0
ARC
  5
298E0
330
298D7
100
AcDbEntity
  8
SS-Hardware
100
AcDbCircle
 10
-29.45000014469087
 20
-59.37369125927546
 30
0.0
 40
0.9999999999959072
100
AcDbArc
 50
180.0000016812121
 51
359.9999983187879
  0
LINE
  5
298E1
330
298D7
100
AcDbEntity
  8
SS-Hardware
100
AcDbLine
 10
12.5
 20
43.50000000000093
 30
0.0
 11
-12.5
 21
43.50000000000093
 31
0.0
1001
AcDbBlockRepETag
1070
     1
1071
        1
1005
298E1
  0
LWPOLYLINE
  5
298E2
330
298D7
100
AcDbEntity
  8
SS-Hardware
100
AcDbPolyline
 90
        6
 70
   129
 43
0.0
 10
12.5
 20
14.5
 10
12.5
 20
43.50000000000093
 10
11.5
 20
44.50000000000094
 10
-11.5
 20
44.50000000000094
 10
-12.5
 20
43.50000000000093
 10
-12.5
 20
14.5
1001
AcDbBlockRepETag
1070
     1
1071
        2
1005
298E2
  0
LWPOLYLINE
  5
298E3
330
298D7
100
AcDbEntity
  8
SS-Hardware
100
AcDbPolyline
 90
        4
 70
   129
 43
0.0
 10
15.0
 20
8.0
 10
-15.0
 20
8.0
 10
-15.0
 20
11.0
 10
15.0
 20
11.0
  0
LWPOLYLINE
  5
298E4
330
298D7
100
AcDbEntity
  8
SS-Hardware
100
AcDbPolyline
 90
        4
 70
   129
 43
0.0
 10
13.69999999999982
 20
14.5
 10
13.69999999999982
 20
11.0
 10
-13.69999999999982
 20
11.0
 10
-13.69999999999982
 20
14.5
  0
LWPOLYLINE
  5
298E5
330
298D7
100
AcDbEntity
  8
SS-Hardware
100
AcDbPolyline
 90
        4
 70
   128
 43
0.0
 10
-6.49999999999909
 20
-20.5
 10
-6.49999999999909
 20
-26.5
 10
-7.299999999998362
 20
-26.5
 10
-7.187512562731269
 20
-30.05153373203814
1001
AcDbBlockRepETag
1070
     1
1071
        5
1005
298E5
  0
LWPOLYLINE
  5
298E6
330
298D7
100
AcDbEntity
  8
SS-Hardware
  6
DASHED
 48
0.5
100
AcDbPolyline
 90
        2
 70
   128
 43
0.0
 10
-7.18751256273127
 20
-30.05153373203814
 10
-7.144052331152344
 20
-31.42369121206187
1001
AcDbBlockRepETag
1070
     1
1071
        9
1005
298E6
  0
LWPOLYLINE
  5
298E7
330
298D7
100
AcDbEntity
  8
SS-Hardware
100
AcDbPolyline
 90
        2
 70
   128
 43
0.0
 10
7.99999999999962
 20
8.000000000000007
 10
7.999999999999216
 20
0.0
1001
AcDbBlockRepETag
1070
     1
1071
        7
1005
298E7
  0
LWPOLYLINE
  5
298E8
330
298D7
100
AcDbEntity
  8
SS-Hardware
100
AcDbPolyline
 90
        4
 70
   128
 43
0.0
 10
7.99999999999866
 20
-11.00000000000004
 10
7.999999999998181
 20
-20.50000000000068
 10
-8.0
 20
-20.49999999999977
 10
-8.000000000000159
 20
-11.00000000000004
1001
AcDbBlockRepETag
1070
     1
1071
        7
1005
298E7
  0
LWPOLYLINE
  5
298E9
330
298D7
100
AcDbEntity
  8
SS-Hardware
100
AcDbPolyline
 90
        2
 70
   128
 43
0.0
 10
-8.000000000000344
 20
-0.0000000000000071
 10
-8.000000000000479
 20
8.000000000000007
1001
AcDbBlockRepETag
1070
     1
1071
        7
1005
298E7
  0
LWPOLYLINE
  5
298EA
330
298D7
100
AcDbEntity
  8
SS-Hardware
100
AcDbPolyline
 90
        4
 70
   128
 43
0.0
 10
6.500000000001818
 20
-20.5
 10
6.500000000000909
 20
-26.49999999999818
 10
7.300000000000181
 20
-26.49999999999909
 10
7.187512562732756
 20
-30.05153373203814
1001
AcDbBlockRepETag
1070
     1
1071
        6
1005
298EA
  0
LWPOLYLINE
  5
298EB
330
298D7
100
AcDbEntity
  8
SS-Hardware
  6
DASHED
 48
0.5
100
AcDbPolyline
 90
        2
 70
   128
 43
0.0
 10
7.187512562732755
 20
-30.05153373203814
 10
7.144052331153741
 20
-31.42369121206097
1001
AcDbBlockRepETag
1070
     1
1071
        8
1005
298EB
  0
LWPOLYLINE
  5
298EC
330
298D7
100
AcDbEntity
  8
SS-Hardware
100
AcDbPolyline
 90
        4
 70
   129
 43
0.0
 10
15.0
 20
-3.0
 10
-15.0
 20
-3.0
 10
-15.0
 20
0.0
 10
15.0
 20
0.0
  0
LINE
  5
298ED
330
298D7
100
AcDbEntity
  8
SS-Hardware
100
AcDbLine
 10
13.8564064605511
 20
-8.999999999999751
 30
0.0
 11
13.85640646055115
 21
-5.00000000000032
 31
0.0
1001
AcDbBlockRepETag
1070
     1
1071
        0
1005
298ED
  0
LINE
  5
298EE
330
298D7
100
AcDbEntity
  8
SS-Hardware
100
AcDbLine
 10
-13.85640646055101
 20
-8.999999999999761
 30
0.0
 11
-13.85640646055107
 21
-5.000000000000158
 31
0.0
1001
AcDbBlockRepETag
1070
     1
1071
        1
1005
298EE
  0
LINE
  5
298EF
330
298D7
100
AcDbEntity
  8
SS-Hardware
100
AcDbLine
 10
-6.928203230275428
 20
-9.000000000000042
 30
0.0
 11
-6.928203230275487
 21
-5.000000000000042
 31
0.0
1001
AcDbBlockRepETag
1070
     1
1071
        2
1005
298EF
  0
LINE
  5
298F0
330
298D7
100
AcDbEntity
  8
SS-Hardware
100
AcDbLine
 10
6.928203230275514
 20
-9.000000000000039
 30
0.0
 11
6.928203230275455
 21
-5.000000000000039
 31
0.0
1001
AcDbBlockRepETag
1070
     1
1071
        3
1005
298F0
  0
LINE
  5
298F1
330
298D7
100
AcDbEntity
  8
SS-Hardware
100
AcDbLine
 10
-10.3923048454131
 20
-11.00000000000004
 30
0.0
 11
10.39230484541319
 21
-11.00000000000004
 31
0.0
1001
AcDbBlockRepETag
1070
     1
1071
        4
1005
298F1
  0
LINE
  5
298F2
330
298D7
100
AcDbEntity
  8
SS-Hardware
100
AcDbLine
 10
-10.39230484541316
 20
-3.000000000000043
 30
0.0
 11
10.39230484541313
 21
-3.000000000000037
 31
0.0
1001
AcDbBlockRepETag
1070
     1
1071
        5
1005
298F2
  0
ARC
  5
298F3
330
298D7
100
AcDbEntity
  8
SS-Hardware
100
AcDbCircle
 10
0.0000000000000393
 20
1.999999999999561
 30
0.0
 40
12.99999999999964
100
AcDbArc
 50
237.7957724960266
 51
302.2042275039733
1001
AcDbBlockRepETag
1070
     1
1071
        6
1005
298F3
  0
ARC
  5
298F4
330
298D7
100
AcDbEntity
  8
SS-Hardware
100
AcDbCircle
 10
-10.39230484541311
 20
-6.999999999999646
 30
0.0
 40
4.000000000000231
100
AcDbArc
 50
210.0000000000034
 51
329.9999999999966
1001
AcDbBlockRepETag
1070
     1
1071
        7
1005
298F4
  0
ARC
  5
298F5
330
298D7
100
AcDbEntity
  8
SS-Hardware
100
AcDbCircle
 10
10.39230484541319
 20
-6.999999999999639
 30
0.0
 40
4.000000000000231
100
AcDbArc
 50
210.0000000000079
 51
329.9999999999922
1001
AcDbBlockRepETag
1070
     1
1071
        8
1005
298F5
  0
ARC
  5
298F6
330
298D7
100
AcDbEntity
  8
SS-Hardware
100
AcDbCircle
 10
-0.000000000000012
 20
-15.99999999999964
 30
0.0
 40
12.99999999999964
100
AcDbArc
 50
57.79577249602666
 51
122.2042275039733
1001
AcDbBlockRepETag
1070
     1
1071
        9
1005
298F6
  0
ARC
  5
298F7
330
298D7
100
AcDbEntity
  8
SS-Hardware
100
AcDbCircle
 10
-10.39230484541316
 20
-7.000000000000441
 30
0.0
 40
4.000000000000231
100
AcDbArc
 50
30.00000000000782
 51
149.9999999999995
1001
AcDbBlockRepETag
1070
     1
1071
       10
1005
298F7
  0
ARC
  5
298F8
330
298D7
100
AcDbEntity
  8
SS-Hardware
100
AcDbCircle
 10
10.39230484541313
 20
-7.000000000000436
 30
0.0
 40
4.000000000000231
100
AcDbArc
 50
30.00000000000782
 51
149.9999999999922
1001
AcDbBlockRepETag
1070
     1
1071
       11
1005
298F8
  0
LINE
  5
298F9
330
298D7
100
AcDbEntity
  8
SS-Hardware
100
AcDbLine
 10
1.500000000002046
 20
-34.42369121206136
 30
0.0
 11
1.500000000002046
 21
-31.42369121206136
 31
0.0
1001
AcDbBlockRepETag
1070
     1
1071
        5
1005
0
  0
LINE
  5
298FA
330
298D7
100
AcDbEntity
  8
SS-Hardware
100
AcDbLine
 10
-1.499999999997726
 20
-34.42369121206227
 30
0.0
 11
-1.499999999997726
 21
-31.42369121206227
 31
0.0
1001
AcDbBlockRepETag
1070
     1
1071
        6
1005
0
  0
LINE
  5
298FB
330
298D7
100
AcDbEntity
  8
SS-Hardware
100
AcDbLine
 10
-14.49999999999909
 20
-31.42369121206254
 30
0.0
 11
-1.499999999997726
 21
-31.42369121206136
 31
0.0
1001
AcDbBlockRepETag
1070
     1
1071
       14
1005
0
  0
LINE
  5
298FC
330
298D7
100
AcDbEntity
  8
SS-Hardware
100
AcDbLine
 10
1.500000000002046
 20
-31.42369121206045
 30
0.0
 11
14.50000000000204
 21
-31.42369121206164
 31
0.0
1001
AcDbBlockRepETag
1070
     1
1071
       15
1005
0
  0
LINE
  5
298FD
330
298D7
100
AcDbEntity
  8
SS-Hardware
100
AcDbLine
 10
-1.499999999997726
 20
-34.42369121206227
 30
0.0
 11
1.500000000002046
 21
-34.42369121206136
 31
0.0
1001
AcDbBlockRepETag
1070
     1
1071
       16
1005
0
  0
LINE
  5
298FE
330
298D7
100
AcDbEntity
  8
SS-Hardware
100
AcDbLine
 10
-14.49999999999909
 20
-31.42369121206255
 30
0.0
 11
-15.99999999999727
 21
-32.42369121206255
 31
0.0
  0
LINE
  5
298FF
330
298D7
100
AcDbEntity
  8
SS-Hardware
100
AcDbLine
 10
14.50000000000341
 20
-31.42369121206255
 30
0.0
 11
16.00000000000159
 21
-32.42369121206255
 31
0.0
  0
LINE
  5
29900
330
298D7
100
AcDbEntity
  8
SS-Hardware
  6
DASHED
 48
0.5
100
AcDbLine
 10
-15.99999999999727
 20
-32.42369121206255
 30
0.0
 11
-15.99999999999727
 21
-42.52369125151903
 31
0.0
  0
LINE
  5
29901
330
298D7
100
AcDbEntity
  8
SS-Hardware
  6
DASHED
 48
0.5
100
AcDbLine
 10
16.00000000000273
 20
-42.52369125151903
 30
0.0
 11
16.00000000000273
 21
-32.4236912120633
 31
0.0
  0
LINE
  5
29902
330
298D7
100
AcDbEntity
  8
SS-Hardware
100
AcDbLine
 10
34.99999999999909
 20
-82.92369121206139
 30
0.0
 11
-35.00000000000091
 21
-82.92369121206139
 31
0.0
  0
LINE
  5
29903
330
298D7
100
AcDbEntity
  8
SS-Hardware
100
AcDbLine
 10
-35.00000000000091
 20
-82.92369121206139
 30
0.0
 11
-35.00000000000091
 21
-82.92369121206139
 31
0.0
  0
LINE
  5
29904
330
298D7
100
AcDbEntity
  8
SS-Hardware
100
AcDbLine
 10
-35.00000000000091
 20
-82.92369121206139
 30
0.0
 11
-35.00000000000091
 21
-84.92369121206047
 31
0.0
  0
LINE
  5
29905
330
298D7
100
AcDbEntity
  8
SS-Hardware
100
AcDbLine
 10
-35.00000000000091
 20
-84.92369121206047
 30
0.0
 11
-19.99999999999363
 21
-88.92369121206138
 31
0.0
  0
LINE
  5
29906
330
298D7
100
AcDbEntity
  8
SS-Hardware
100
AcDbLine
 10
20.00000000000637
 20
-88.92369121206138
 30
0.0
 11
34.99999999999909
 21
-84.92369121206047
 31
0.0
  0
LINE
  5
29907
330
298D7
100
AcDbEntity
  8
SS-Hardware
100
AcDbLine
 10
34.99999999999909
 20
-84.92369121206047
 30
0.0
 11
-35.00000000000091
 21
-84.92369121206047
 31
0.0
  0
LINE
  5
29908
330
298D7
100
AcDbEntity
  8
SS-Hardware
100
AcDbLine
 10
20.00000000000637
 20
-88.92369121206138
 30
0.0
 11
-19.99999999999363
 21
-88.92369121206138
 31
0.0
  0
LWPOLYLINE
  5
29909
330
298D7
100
AcDbEntity
  8
SS-Hardware
100
AcDbPolyline
 90
        6
 70
     1
 43
0.0
 10
34.99999999999636
 20
-46.52369125151904
 10
17.99999999999636
 20
-42.52369125151903
 10
-18.00000000000364
 20
-42.52369125151903
 10
-35.00000000000364
 20
-46.52369125151904
 10
-35.00000000000364
 20
-48.52369125151904
 10
34.99999999999636
 20
-48.52369125151904
1001
AcDbBlockRepETag
1070
     1
1071
        2
1005
29909
  0
LINE
  5
2990A
330
298D7
100
AcDbEntity
  8
SS-Hardware
100
AcDbLine
 10
34.99999999999636
 20
-46.52369125151904
 30
0.0
 11
-35.00000000000364
 21
-46.52369125151904
 31
0.0
1001
AcDbBlockRepETag
1070
     1
1071
       19
1005
2990A
  0
LWPOLYLINE
  5
2990B
330
298D7
100
AcDbEntity
  8
SS-Hardware
100
AcDbPolyline
 90
        4
 70
     1
 43
0.0
 10
34.99999999999636
 20
-50.12369125151872
 10
-35.00000000000364
 20
-50.12369125151872
 10
-35.00000000000364
 20
-48.52369125151881
 10
34.99999999999636
 20
-48.52369125151881
1001
AcDbBlockRepETag
1070
     1
1071
        0
1005
2990B
  0
LWPOLYLINE
  5
2990C
330
298D7
100
AcDbEntity
  8
SS-Hardware
100
AcDbPolyline
 90
        4
 70
     1
 43
0.0
 10
34.99999999999909
 20
-82.92369121206139
 10
-35.00000000000091
 20
-82.92369121206139
 10
-35.00000000000091
 20
-81.32369121206147
 10
34.99999999999909
 20
-81.32369121206147
1001
AcDbBlockRepETag
1070
     1
1071
        0
1005
2990C
  0
LINE
  5
2990D
330
298D7
100
AcDbEntity
  8
SS-Hardware
100
AcDbLine
 10
35.00000000001364
 20
-82.92369121206139
 30
0.0
 11
35.00000000001364
 21
-82.92369121206139
 31
0.0
  0
LINE
  5
2990E
330
298D7
100
AcDbEntity
  8
SS-Hardware
100
AcDbLine
 10
35.00000000001364
 20
-82.92369121206139
 30
0.0
 11
35.00000000001364
 21
-84.92369121206047
 31
0.0
  0
ARC
  5
2990F
330
298D7
100
AcDbEntity
  8
SS-Hardware
100
AcDbCircle
 10
29.45000033091015
 20
-72.07369119369935
 30
0.0
 40
1.0
100
AcDbArc
 50
0.0000000004168817
 51
179.9999999993746
  0
LINE
  5
29910
330
298D7
100
AcDbEntity
  8
SS-Hardware
100
AcDbLine
 10
34.99999999999909
 20
-72.07369127090385
 30
0.0
 11
30.45000033091014
 21
-72.07369119369935
 31
0.0
  0
LINE
  5
29911
330
298D7
100
AcDbEntity
  8
SS-Hardware
100
AcDbLine
 10
34.9999999392885
 20
-72.07369127025629
 30
0.0
 11
35.00000000001364
 21
-59.37369127024465
 31
0.0
  0
LINE
  5
29912
330
298D7
100
AcDbEntity
  8
SS-Hardware
100
AcDbLine
 10
34.99999999999909
 20
-59.3736912736789
 30
0.0
 11
30.45000008398256
 21
-59.3736911346972
 31
0.0
  0
ARC
  5
29913
330
298D7
100
AcDbEntity
  8
SS-Hardware
100
AcDbCircle
 10
29.45000008398256
 20
-59.37369113468992
 30
0.0
 40
1.0
100
AcDbArc
 50
180.0000000004169
 51
359.9999999995831
  0
LINE
  5
29914
330
298D7
100
AcDbEntity
  8
SS-Hardware
100
AcDbLine
 10
-18.21249997828658
 20
-50.37369134269795
 30
0.0
 11
18.2125000246599
 21
-50.37369134269863
 31
0.0
  0
LINE
  5
29915
330
298D7
100
AcDbEntity
  8
SS-Hardware
100
AcDbLine
 10
18.21249997830023
 20
-59.37369119182267
 30
0.0
 11
18.21249997830205
 21
-50.37369134269863
 31
0.0
  0
LINE
  5
29916
330
298D7
100
AcDbEntity
  8
SS-Hardware
100
AcDbLine
 10
20.00000000000637
 20
-81.07369119780219
 30
0.0
 11
19.99999999761644
 21
-80.07369119780207
 31
0.0
  0
LINE
  5
29917
330
298D7
100
AcDbEntity
  8
SS-Hardware
100
AcDbLine
 10
19.99999999761667
 20
-80.0736911978022
 30
0.0
 11
19.00000002318643
 21
-72.07369119232078
 31
0.0
  0
ARC
  5
29918
330
298D7
100
AcDbEntity
  8
SS-Hardware
100
AcDbCircle
 10
18.49999992421271
 20
-81.07369121724753
 30
0.0
 40
0.5
100
AcDbArc
 50
359.9999886947816
 51
180.000015816373
  0
LINE
  5
29919
330
298D7
100
AcDbEntity
  8
SS-Hardware
100
AcDbLine
 10
18.99999992421271
 20
-81.07369127345851
 30
0.0
 11
20.00000000000637
 21
-81.07369125401328
 31
0.0
  0
ARC
  5
2991A
330
298D7
100
AcDbEntity
  8
SS-Hardware
100
AcDbCircle
 10
-29.49999994690825
 20
-72.07369124451395
 30
0.0
 40
1.0
100
AcDbArc
 50
0.0000000006253225
 51
179.9999999995831
  0
LINE
  5
2991B
330
298D7
100
AcDbEntity
  8
SS-Hardware
100
AcDbLine
 10
-34.99999999998636
 20
-72.07369127090385
 30
0.0
 11
-30.49999994690825
 21
-72.07369124451395
 31
0.0
  0
LINE
  5
2991C
330
298D7
100
AcDbEntity
  8
SS-Hardware
100
AcDbLine
 10
-28.49999994690825
 20
-72.07369123971671
 30
0.0
 11
23.81249963162827
 21
-72.07369096939449
 31
0.0
  0
LINE
  5
2991D
330
298D7
100
AcDbEntity
  8
SS-Hardware
100
AcDbLine
 10
-34.99999993927577
 20
-72.07369127025629
 30
0.0
 11
-35.00000000000091
 21
-59.37369127024465
 31
0.0
  0
LINE
  5
2991E
330
298D7
100
AcDbEntity
  8
SS-Hardware
100
AcDbLine
 10
-34.99999999998636
 20
-59.3736912736789
 30
0.0
 11
-30.45000008396983
 21
-59.3736911346972
 31
0.0
  0
LINE
  5
2991F
330
298D7
100
AcDbEntity
  8
SS-Hardware
100
AcDbLine
 10
-28.45000008396983
 20
-59.37369120290441
 30
0.0
 11
23.81249938470046
 21
-59.37369114633207
 31
0.0
  0
ARC
  5
29920
330
298D7
100
AcDbEntity
  8
SS-Hardware
100
AcDbCircle
 10
-29.45000008396983
 20
-59.37369113468992
 30
0.0
 40
1.0
100
AcDbArc
 50
180.0000000004169
 51
359.9999999995831
  0
LINE
  5
29921
330
298D7
100
AcDbEntity
  8
SS-Hardware
100
AcDbLine
 10
-18.2124999782875
 20
-59.37369119182267
 30
0.0
 11
-18.21249997828795
 21
-50.37369134269784
 31
0.0
  0
LINE
  5
29922
330
298D7
100
AcDbEntity
  8
SS-Hardware
100
AcDbLine
 10
-19.99999999999363
 20
-81.07369119780219
 30
0.0
 11
-19.99999999760371
 21
-80.07369119780207
 31
0.0
  0
LINE
  5
29923
330
298D7
100
AcDbEntity
  8
SS-Hardware
100
AcDbLine
 10
-19.99999999760393
 20
-80.0736911978022
 30
0.0
 11
-18.99999997681334
 21
-72.07369119232078
 31
0.0
  0
ARC
  5
29924
330
298D7
100
AcDbEntity
  8
SS-Hardware
100
AcDbCircle
 10
-18.49999992419998
 20
-81.07369121724753
 30
0.0
 40
0.5
100
AcDbArc
 50
359.9999841836269
 51
180.0000113052184
  0
LINE
  5
29925
330
298D7
100
AcDbEntity
  8
SS-Hardware
100
AcDbLine
 10
-18.99999992419998
 20
-81.07369127345851
 30
0.0
 11
-19.99999999999363
 21
-81.07369125401328
 31
0.0
  0
LINE
  5
29926
330
298D7
100
AcDbEntity
  8
SS-Hardware
100
AcDbLine
 10
17.99999992421271
 20
-81.07369122022783
 30
0.0
 11
-17.99999992419998
 21
-81.07369142807248
 31
0.0
  0
HATCH
  5
29927
330
298D7
100
AcDbEntity
  8
SS-Hardware
370
     5
100
AcDbHatch
 10
0.0
 20
0.0
 30
0.0
210
0.0
220
0.0
230
1.0
  2
ANSI31
 70
     0
 71
     0
 91
        2
 92
        1
 93
        4
 72
     1
 10
23.81249938470046
 20
-59.37369128861814
 11
34.99999938470751
 21
-59.37369127024476
 72
     1
 10
34.99999938470751
 20
-59.37369127024476
 11
34.99999938470751
 21
-59.1236912702451
 72
     1
 10
34.99999938470751
 20
-59.1236912702451
 11
23.81249938470046
 21
-59.12369128861849
 72
     1
 10
23.81249938470046
 20
-59.12369128861849
 11
23.81249938470046
 21
-59.37369128861814
 97
        0
 92
        1
 93
        2
 72
     1
 10
30.44999952939361
 20
-59.37369128861814
 11
28.4499995294018
 21
-59.37369128861814
 72
     2
 10
29.4499995293977
 20
-59.37369125881582
 40
0.9999999999959076
 50
180.0000017075473
 51
359.9999982924527
 73
     1
 97
        0
 75
     0
 76
     1
 52
0.0
 41
1.0
 77
     0
 78
     1
 53
315.0
 43
-1757.354180505188
 44
-846.7288018674276
 45
-0.0883883476483185
 46
-0.0883883476483184
 79
     0
 98
        2
 10
29.05421138339216
 20
-59.22085410671423
 10
29.10736913933988
 20
-59.67620249669142
1001
ACAD
1010
0.0
1020
0.0
1030
0.0
  0
LWPOLYLINE
  5
29928
330
298D7
100
AcDbEntity
  8
SS-Hardware
370
     5
100
AcDbPolyline
 90
        6
 70
     0
 43
0.0
 10
30.44999952939361
 20
-59.37369128861814
 10
34.99999938470751
 20
-59.37369127024476
 10
34.99999938470751
 20
-59.1236912702451
 10
23.81249938470046
 20
-59.1236912702451
 10
23.81249938470046
 20
-59.37369127024476
 10
28.4499995294018
 20
-59.37369128861814
  0
ARC
  5
29929
330
298D7
100
AcDbEntity
  8
SS-Hardware
100
AcDbCircle
 10
29.4499995293977
 20
-59.37369125927546
 30
0.0
 40
0.9999999999959072
100
AcDbArc
 50
180.0000016812121
 51
359.9999983187879
  0
HATCH
  5
2992A
330
298D7
100
AcDbEntity
  8
SS-Hardware
370
     5
100
AcDbHatch
 10
0.0
 20
0.0
 30
0.0
210
0.0
220
0.0
230
1.0
  2
ANSI31
 70
     0
 71
     0
 91
        2
 92
        1
 93
        4
 72
     1
 10
-23.81250024692144
 20
-72.07369120762837
 11
-35.00000024692849
 21
-72.07369122600176
 72
     1
 10
-35.00000024692849
 20
-72.07369122600176
 11
-35.00000024692849
 21
-72.32369122600141
 72
     1
 10
-35.00000024692849
 20
-72.32369122600141
 11
-23.81250024692144
 21
-72.32369120762803
 72
     1
 10
-23.81250024692144
 20
-72.32369120762803
 11
-23.81250024692144
 21
-72.07369120762837
 97
        0
 92
        1
 93
        2
 72
     1
 10
-30.4500003916146
 20
-72.07369120762837
 11
-28.45000039162278
 21
-72.07369120762837
 72
     2
 10
-29.45000039161869
 20
-72.07369123743069
 40
0.9999999999959076
 50
0.0000017075472995
 51
179.9999982924527
 73
     1
 97
        0
 75
     0
 76
     1
 52
0.0
 41
1.0
 77
     0
 78
     1
 53
315.0
 43
-1757.354180505188
 44
-846.7288018674276
 45
-0.0883883476483185
 46
-0.0883883476483184
 79
     0
 98
        2
 10
-29.05421224561314
 20
-72.22652838953229
 10
-29.10737000156087
 20
-71.7711799995551
1001
ACAD
1010
0.0
1020
0.0
1030
0.0
  0
LWPOLYLINE
  5
2992B
330
298D7
100
AcDbEntity
  8
SS-Hardware
370
     5
100
AcDbPolyline
 90
        6
 70
     0
 43
0.0
 10
-30.4500003916146
 20
-72.07369120762837
 10
-35.00000024692849
 20
-72.07369122600176
 10
-35.00000024692849
 20
-72.32369122600141
 10
-23.81250024692144
 20
-72.32369122600141
 10
-23.81250024692144
 20
-72.07369122600176
 10
-28.45000039162278
 20
-72.07369120762837
  0
ARC
  5
2992C
330
298D7
100
AcDbEntity
  8
SS-Hardware
100
AcDbCircle
 10
-29.45000039161869
 20
-72.07369123697105
 30
0.0
 40
0.9999999999959072
100
AcDbArc
 50
0.0000016812120962
 51
179.9999983187879
  0
LINE
  5
2992D
330
298D7
100
AcDbEntity
  8
SS-Hardware
100
AcDbLine
 10
-23.81249969234068
 20
-81.32369120727526
 30
0.0
 11
-22.00000047225513
 21
-81.32369120727526
 31
0.0
  0
LWPOLYLINE
  5
2992E
330
298D7
100
AcDbEntity
  8
SS-Hardware
100
AcDbPolyline
 90
        4
 70
     1
 43
0.0
 10
22.00000047226786
 20
-81.07369119780196
 10
-22.00000047225513
 20
-81.07369119780196
 10
-22.00000047225513
 20
-81.32369120727526
 10
22.00000047226786
 20
-81.32369120727526
  0
ENDBLK
  5
2992F
330
298D7
100
AcDbEntity
  8
0
100
AcDbBlockEnd
  0
ENDSEC
  0
SECTION
  2
ENTITIES
  0
MTEXT
  5
28FCF
102
{ACAD_XDICTIONARY
360
28FD0
102
}
330
23
100
AcDbEntity
  8
0
100
AcDbMText
 10
795.5707860597917
 20
-2417.611382292999
 30
0.0
 40
8.0
 41
77.32826899976315
 71
     2
 72
     1
  1
SS202ST-AB702T-DN
  7
1-2
 73
     1
 44
1.0
1001
ACAD
1000
MTEXTBEGIN
1070
    73
1070
     1
1070
    44
1040
1.0
1070
    74
1070
     0
1000
MTEXTEND
1000
ACAD_MTEXT_DEFINED_HEIGHT_BEGIN
1070
    46
1040
6.800837329333571
1000
ACAD_MTEXT_DEFINED_HEIGHT_END
  0
INSERT
  5
290E7
330
23
100
AcDbEntity
  8
SS-Hardware
100
AcDbBlockReference
  2
SS202T-AB702T-DN-SV
 10
1001.380543696347
 20
-2469.850599561472
 30
0.0
  0
INSERT
  5
29499
330
23
100
AcDbEntity
  8
SS-Hardware
100
AcDbBlockReference
  2
SS202ST-AB702T-DN-FV
 10
633.8750392181136
 20
-2527.850599507147
 30
0.0
  0
INSERT
  5
2958E
330
23
100
AcDbEntity
  8
SS-Hardware
100
AcDbBlockReference
  2
SS202VS-AB702T-DN-TV
 10
633.8750392181136
 20
-2220.692735536243
 30
0.0
  0
VIEWPORT
  5
12645
102
{ACAD_XDICTIONARY
360
29A0F
102
}
330
1263E
100
AcDbEntity
 67
     1
  8
0
100
AcDbViewport
 10
214.1146822452439
 20
138.9379976340569
 30
0.0
 40
344.7322135956225
 41
226.407119789748
 68
     1
 69
     1
 12
214.1146822452439
 22
138.9379976340569
 13
0.0
 23
0.0
 14
10.0
 24
10.0
 15
10.0
 25
10.0
 16
0.0
 26
0.0
 36
1.0
 17
0.0
 27
0.0
 37
0.0
 42
50.0
 43
0.0
 44
0.0
 45
226.407119789748
 50
0.0
 51
0.0
 72
  1000
 90
   557088
  1

281
     0
 71
     1
 74
     0
110
0.0
120
0.0
130
0.0
111
1.0
121
0.0
131
0.0
112
0.0
122
1.0
132
0.0
 79
     0
146
0.0
  0
VIEWPORT
  5
12647
102
{ACAD_XDICTIONARY
360
29A11
102
}
330
1263E
100
AcDbEntity
 67
     1
  8
0
100
AcDbViewport
 10
214.1219885349274
 20
138.9380002617836
 30
0.0
 40
342.5951816558838
 41
222.3008004188538
 68
     2
 69
     2
 12
1077.341694779336
 22
268.1675780873669
 13
0.0
 23
0.0
 14
10.0
 24
10.0
 15
10.0
 25
10.0
 16
0.0
 26
0.0
 36
1.0
 17
0.0
 27
0.0
 37
0.0
 42
50.0
 43
0.0
 44
0.0
 45
721.0748412731446
 50
0.0
 51
0.0
 72
 20000
 90
   819296
  1

281
     0
 71
     1
 74
     0
110
-226.9490400000001
120
0.0000000000001454
130
0.0
111
1.0
121
0.0
131
0.0
112
0.0
122
1.0
132
0.0
 79
     0
146
0.0
  0
ENDSEC
  0
SECTION
  2
OBJECTS
  0
DICTIONARY
  5
C
330
0
100
AcDbDictionary
281
     1
  3
ACAD_CIP_PREVIOUS_PRODUCT_INFO
350
2950A
  3
ACAD_COLOR
350
1C
  3
ACAD_DGNLINESTYLECOMP
350
29678
  3
ACAD_GROUP
350
D
  3
ACAD_LAYOUT
350
1A
  3
ACAD_MATERIAL
350
1B
  3
ACAD_MLEADERSTYLE
350
29505
  3
ACAD_MLINESTYLE
350
17
  3
ACAD_PLOTSETTINGS
350
19
  3
ACAD_PLOTSTYLENAME
350
E
  3
ACAD_SCALELIST
350
294F3
  3
ACAD_TABLESTYLE
350
1D
  3
ACAD_VISUALSTYLE
350
992A
  3
AcadDim
350
9371
  3
ACDB_RECOMPOSE_DATA
350
299F1
  3
AcDbVariableDictionary
350
8F
  3
AEC_CLASSIFICATION_SYSTEM_DEFS
350
978F
  3
AEC_PROPERTY_SET_DEFS
350
9790
  3
DWGPROPS
350
299F2
  0
DICTIONARY
  5
ED8B
330
8
100
AcDbDictionary
280
     1
281
     1
  0
DICTIONARY
  5
6F
330
2
100
AcDbDictionary
280
     1
281
     1
  3
ACAD_LAYERFILTERS
360
2371F
  3
ACAD_LAYERSTATES
360
70
  3
ACLYDICTIONARY
360
2371E
  0
DICTIONARY
  5
2958F
330
10
100
AcDbDictionary
280
     1
281
     1
  3
ADSK_XREC_LAYER_RECONCILED
360
29590
  0
DICTIONARY
  5
29670
330
2966F
100
AcDbDictionary
280
     1
281
     1
  0
DICTIONARY
  5
B9
330
23
100
AcDbDictionary
280
     1
281
     1
  3
ACAD_SORTENTS
360
BA
  0
DICTIONARY
  5
29838
330
24CBA
100
AcDbDictionary
280
     1
281
     1
  3
ACAD_SORTENTS
360
29839
  0
DICTIONARY
  5
298D4
330
290E2
100
AcDbDictionary
280
     1
281
     1
  0
DICTIONARY
  5
297F4
330
29466
100
AcDbDictionary
280
     1
281
     1
  0
DICTIONARY
  5
2995B
330
2953F
100
AcDbDictionary
280
     1
281
     1
  0
DICTIONARY
  5
298D8
330
298D7
100
AcDbDictionary
280
     1
281
     1
  3
ACAD_SORTENTS
360
298D9
  0
DICTIONARY
  5
28FD0
330
28FCF
100
AcDbDictionary
280
     1
281
     1
  3
ACAD_MTEXT_2008_RT
360
28FD1
  0
DICTIONARY
  5
29A0F
330
12645
100
AcDbDictionary
280
     1
281
     1
  3
ACAD_XREC_ROUNDTRIP
360
29A10
  0
DICTIONARY
  5
29A11
330
12647
100
AcDbDictionary
280
     1
281
     1
  3
ACAD_XREC_ROUNDTRIP
360
29A12
  0
XRECORD
  5
2950A
102
{ACAD_REACTORS
330
C
102
}
330
C
100
AcDbXrecord
280
     1
300
ACDLT
300
2012
300
ACDLT_F_S
  0
DICTIONARY
  5
1C
102
{ACAD_REACTORS
330
C
102
}
330
C
100
AcDbDictionary
281
     1
  0
DICTIONARY
  5
29678
102
{ACAD_REACTORS
330
C
102
}
330
C
100
AcDbDictionary
280
     1
281
     1
  0
DICTIONARY
  5
D
102
{ACAD_REACTORS
330
C
102
}
330
C
100
AcDbDictionary
281
     1
  0
DICTIONARY
  5
1A
102
{ACAD_REACTORS
330
C
102
}
330
C
100
AcDbDictionary
281
     1
  3
Layout1
350
1263F
  3
Model
350
26
  0
DICTIONARY
  5
1B
102
{ACAD_REACTORS
330
C
102
}
330
C
100
AcDbDictionary
281
     1
  3
ByBlock
350
9928
  3
ByLayer
350
9927
  3
Global
350
9929
  0
DICTIONARY
  5
29505
102
{ACAD_REACTORS
330
C
102
}
330
C
100
AcDbDictionary
281
     1
  3
Standard
350
29506
  0
DICTIONARY
  5
17
102
{ACAD_REACTORS
330
C
102
}
330
C
100
AcDbDictionary
281
     1
  3
Standard
350
18
  0
DICTIONARY
  5
19
102
{ACAD_REACTORS
330
C
102
}
330
C
100
AcDbDictionary
281
     1
  0
ACDBDICTIONARYWDFLT
  5
E
102
{ACAD_REACTORS
330
C
102
}
330
C
100
AcDbDictionary
281
     1
  3
Normal
350
F
100
AcDbDictionaryWithDefault
340
F
  0
DICTIONARY
  5
294F3
102
{ACAD_REACTORS
330
C
102
}
330
C
100
AcDbDictionary
281
     1
  3
A0
350
294F4
  3
A1
350
294F5
  3
A2
350
294F6
  3
A3
350
294F7
  3
A4
350
294F8
  3
A5
350
294F9
  3
A6
350
294FA
  3
A7
350
294FB
  3
A8
350
294FC
  3
A9
350
294FD
  3
B0
350
294FE
  3
B1
350
294FF
  3
B2
350
29500
  3
B3
350
29501
  3
B4
350
29502
  3
B5
350
29503
  3
B6
350
29504
  0
DICTIONARY
  5
1D
102
{ACAD_REACTORS
330
C
102
}
330
C
100
AcDbDictionary
281
     1
  3
Standard
350
1E
  0
DICTIONARY
  5
992A
102
{ACAD_REACTORS
330
C
102
}
330
C
100
AcDbDictionary
281
     1
  3
2dWireframe
350
9930
  3
3D Hidden
350
21BFF
  3
3dWireframe
350
21BFE
  3
Basic
350
992F
  3
Brighten
350
9936
  3
ColorChange
350
993A
  3
Conceptual
350
21C00
  3
Dim
350
9935
  3
EdgeColorOff
350
294F2
  3
Facepattern
350
9939
  3
Flat
350
992B
  3
FlatWithEdges
350
992C
  3
Gouraud
350
992D
  3
GouraudWithEdges
350
992E
  3
Hidden
350
294EA
  3
JitterOff
350
294F0
  3
Linepattern
350
9938
  3
OverhangOff
350
294F1
  3
Realistic
350
21C01
  3
Shaded
350
294EF
  3
Shaded with edges
350
294EE
  3
Shades of Gray
350
294EB
  3
Sketchy
350
294EC
  3
Thicken
350
9937
  3
Wireframe
350
294E9
  3
X-Ray
350
294ED
  0
XRECORD
  5
9371
102
{ACAD_REACTORS
330
C
102
}
330
C
100
AcDbXrecord
280
     1
 90
   990106
  3

 60
     0
 61
     0
 62
     1
 63
     3
 64
     0
 65
     0
 66
     0
 67
     3
 68
     1
 69
     0
 70
     0
 71
     0
 72
     0
 40
0.0
170
     0
  0
XRECORD
  5
299F1
102
{ACAD_REACTORS
330
C
102
}
330
C
100
AcDbXrecord
280
     1
 90
        1
330
1E
  0
DICTIONARY
  5
8F
102
{ACAD_REACTORS
330
C
102
}
330
C
100
AcDbDictionary
281
     1
  3
CANNOSCALE
350
29596
  3
CMLEADERSTYLE
350
29595
  3
CTABLESTYLE
350
90
  3
DIMASSOC
350
21F51
  3
HIDETEXT
350
21F50
  3
INDEXCTL
350
21F4F
  3
SORTENTS
350
21F4E
  3
XCLIPFRAME
350
29971
  0
DICTIONARY
  5
978F
102
{ACAD_REACTORS
330
C
102
}
330
C
100
AcDbDictionary
281
     1
  0
DICTIONARY
  5
9790
102
{ACAD_REACTORS
330
C
102
}
330
C
100
AcDbDictionary
281
     1
  0
XRECORD
  5
299F2
102
{ACAD_REACTORS
330
C
102
}
330
C
100
AcDbXrecord
280
     1
  1
DWGPROPS COOKIE
  2

  3

  4

  6

  7

  8
janethui
  9

300
=
301
=
302
=
303
=
304
=
305
=
306
=
307
=
308
=
309
=
 40
6.135772037037036
 41
2453860.639871794
 42
2456748.644778403
  1

 90
        0
  0
DICTIONARY
  5
2371F
102
{ACAD_REACTORS
330
6F
102
}
330
6F
100
AcDbDictionary
281
     1
  0
DICTIONARY
  5
70
102
{ACAD_REACTORS
330
6F
102
}
330
6F
100
AcDbDictionary
281
     1
  0
DICTIONARY
  5
2371E
102
{ACAD_REACTORS
330
6F
102
}
330
6F
100
AcDbDictionary
281
     1
1001
ACAD
1000
<All
  0
XRECORD
  5
29590
102
{ACAD_REACTORS
330
2958F
102
}
330
2958F
100
AcDbXrecord
280
     1
290
     1
  0
SORTENTSTABLE
  5
BA
102
{ACAD_REACTORS
330
B9
102
}
330
B9
100
AcDbSortentsTable
330
23
331
290E7
  5
29463
331
28FCF
  5
29454
  0
SORTENTSTABLE
  5
29839
102
{ACAD_REACTORS
330
29838
102
}
330
29838
100
AcDbSortentsTable
330
24CBA
331
29820
  5
2982A
331
29821
  5
2982B
331
29822
  5
2982C
331
29823
  5
2982D
331
29824
  5
2982E
331
29825
  5
2982F
331
29826
  5
29821
331
29827
  5
29822
331
29828
  5
29823
331
29829
  5
29824
331
2982A
  5
29825
331
2982B
  5
29826
331
2982C
  5
29827
331
2982D
  5
29820
331
2982E
  5
29829
331
2982F
  5
29828
  0
SORTENTSTABLE
  5
298D9
102
{ACAD_REACTORS
330
298D8
102
}
330
298D8
100
AcDbSortentsTable
330
298D7
  0
XRECORD
  5
28FD1
102
{ACAD_REACTORS
330
28FD0
102
}
330
28FD0
100
AcDbXrecord
280
     1
 40
24012.0
  1
\pxqr;{\LPOST MOUNTED (OPTION)}
  0
XRECORD
  5
29A10
102
{ACAD_REACTORS
330
29A0F
102
}
330
29A0F
100
AcDbXrecord
280
     1
102
SHADEPLOT
 70
     0
  0
XRECORD
  5
29A12
102
{ACAD_REACTORS
330
29A11
102
}
330
29A11
100
AcDbXrecord
280
     1
102
SHADEPLOT
 70
     0
  0
LAYOUT
  5
1263F
102
{ACAD_XDICTIONARY
360
1264C
102
}
102
{ACAD_REACTORS
330
1A
102
}
330
1A
100
AcDbPlotSettings
  1

  2
C:\Documents and Settings\Janet Hui\Application Data\Autodesk\AutoCAD LT 2007\R12\enu\plotters\11 x 17 Printer.pc3
  4
User122
  6

 40
0.7619999647140503
 41
1.269999980926513
 42
0.761993408203125
 43
1.18603515625
 44
279.3999938964844
 45
430.7000122070312
 46
0.0
 47
0.0
 48
0.0
 49
0.0
140
0.0
141
0.0
142
1.0
143
1.0
 70
   688
 72
     1
 73
     1
 74
     5
  7
monochrome.ctb
 75
    16
147
1.0
148
0.0
149
0.0
100
AcDbLayout
  1
Layout1
 70
     1
 71
     1
 10
-1.18603515625
 20
-0.7619999647140503
 11
429.5139770507812
 21
278.6379939317703
 12
0.0
 22
0.0
 32
0.0
 14
42.80009843104778
 24
27.77230490526915
 34
-0.0015258207003583
 15
385.4292660594398
 25
250.1036903628446
 35
0.0000000349246037
146
0.0
 13
0.0
 23
0.0
 33
0.0
 16
1.0
 26
0.0
 36
0.0
 17
0.0
 27
1.0
 37
0.0
 76
     0
330
1263E
331
12645
1001
ACAD_PSEXT
1000
C:\Documents and Settings\Janet Hui\Application Data\Autodesk\AutoCAD LT 2007\R12\enu\plotters\11 x 17 Printer.pc3
1000
HP Deskjet 9800 Series
1000
Behind Roy
1000
A3 (11 x 17) Printer
1070
     0
  0
LAYOUT
  5
26
102
{ACAD_XDICTIONARY
360
299F4
102
}
102
{ACAD_REACTORS
330
1A
102
}
330
1A
100
AcDbPlotSettings
  1

  2
\\server01\Samsung SCX-4x21 Series
  4
Letter
  6

 40
5.027082920074462
 41
5.027085781097412
 42
5.027069091796875
 43
5.027069091796875
 44
215.8999938964844
 45
279.3999938964844
 46
0.4229209423065754
 47
-0.0770804882049276
 48
2452.811006255893
 49
-148.2721501433156
140
2991.811006255893
141
261.7278498566843
142
1.0
143
2.0
 70
 11940
 72
     1
 73
     1
 74
     4
  7
monochrome.ctb
 75
     0
147
0.5
148
-2452.811006255893
149
148.2721501433156
100
AcDbLayout
  1
Model
 70
     1
 71
     0
 10
0.0
 20
0.0
 11
12.0
 21
9.0
 12
0.0
 22
0.0
 32
0.0
 14
0.0
 24
0.0
 34
0.0
 15
0.0
 25
0.0
 35
0.0
146
0.0
 13
0.0
 23
0.0
 33
0.0
 16
1.0
 26
0.0
 36
0.0
 17
0.0
 27
1.0
 37
0.0
 76
     0
330
23
331
9925
1001
ACAD_PSEXT
1000
\\server01\Samsung SCX-4x21 Series
1000
Samsung SCX-4x21 Series
1000
\\server01
1000

1070
     0
  0
MATERIAL
  5
9928
102
{ACAD_XDICTIONARY
360
294C4
102
}
102
{ACAD_REACTORS
330
1B
102
}
330
1B
100
AcDbMaterial
  1
ByBlock
  0
MATERIAL
  5
9927
102
{ACAD_XDICTIONARY
360
294C2
102
}
102
{ACAD_REACTORS
330
1B
102
}
330
1B
100
AcDbMaterial
  1
ByLayer
  0
MATERIAL
  5
9929
102
{ACAD_XDICTIONARY
360
294C6
102
}
102
{ACAD_REACTORS
330
1B
102
}
330
1B
100
AcDbMaterial
  1
Global
  0
MLEADERSTYLE
  5
29506
102
{ACAD_REACTORS
330
29505
102
}
330
29505
100
AcDbMLeaderStyle
170
     2
171
     1
172
     0
 90
        2
 40
0.0
 41
0.0
173
     1
 91
-1056964608
340
14
 92
       -2
290
     1
 42
2.0
291
     1
 43
0.36
  3
Standard
 44
4.0
300

342
11
174
     1
178
     6
175
     1
176
     0
 93
-1056964608
 45
4.0
292
     0
297
     0
 46
4.0
 94
-1056964608
 47
1.0
 49
1.0
140
1.0
293
     1
141
0.0
294
     1
177
     0
142
1.0
295
     0
296
     0
143
0.125
1001
ACAD_MLEADERVER
1070
     2
  0
MLINESTYLE
  5
18
102
{ACAD_REACTORS
330
17
102
}
330
17
100
AcDbMlineStyle
  2
STANDARD
 70
     0
  3

 62
   256
 51
90.0
 52
90.0
 71
     2
 49
0.5
 62
   256
  6
BYLAYER
 49
-0.5
 62
   256
  6
BYLAYER
  0
ACDBPLACEHOLDER
  5
F
102
{ACAD_REACTORS
330
E
102
}
330
E
  0
SCALE
  5
294F4
102
{ACAD_REACTORS
330
294F3
102
}
330
294F3
100
AcDbScale
 70
     0
300
1:1
140
1.0
141
1.0
290
     1
  0
SCALE
  5
294F5
102
{ACAD_REACTORS
330
294F3
102
}
330
294F3
100
AcDbScale
 70
     0
300
1:2
140
1.0
141
2.0
290
     0
  0
SCALE
  5
294F6
102
{ACAD_REACTORS
330
294F3
102
}
330
294F3
100
AcDbScale
 70
     0
300
1:4
140
1.0
141
4.0
290
     0
  0
SCALE
  5
294F7
102
{ACAD_REACTORS
330
294F3
102
}
330
294F3
100
AcDbScale
 70
     0
300
1:5
140
1.0
141
5.0
290
     0
  0
SCALE
  5
294F8
102
{ACAD_REACTORS
330
294F3
102
}
330
294F3
100
AcDbScale
 70
     0
300
1:8
140
1.0
141
8.0
290
     0
  0
SCALE
  5
294F9
102
{ACAD_REACTORS
330
294F3
102
}
330
294F3
100
AcDbScale
 70
     0
300
1:10
140
1.0
141
10.0
290
     0
  0
SCALE
  5
294FA
102
{ACAD_REACTORS
330
294F3
102
}
330
294F3
100
AcDbScale
 70
     0
300
1:16
140
1.0
141
16.0
290
     0
  0
SCALE
  5
294FB
102
{ACAD_REACTORS
330
294F3
102
}
330
294F3
100
AcDbScale
 70
     0
300
1:20
140
1.0
141
20.0
290
     0
  0
SCALE
  5
294FC
102
{ACAD_REACTORS
330
294F3
102
}
330
294F3
100
AcDbScale
 70
     0
300
1:30
140
1.0
141
30.0
290
     0
  0
SCALE
  5
294FD
102
{ACAD_REACTORS
330
294F3
102
}
330
294F3
100
AcDbScale
 70
     0
300
1:40
140
1.0
141
40.0
290
     0
  0
SCALE
  5
294FE
102
{ACAD_REACTORS
330
294F3
102
}
330
294F3
100
AcDbScale
 70
     0
300
1:50
140
1.0
141
50.0
290
     0
  0
SCALE
  5
294FF
102
{ACAD_REACTORS
330
294F3
102
}
330
294F3
100
AcDbScale
 70
     0
300
1:100
140
1.0
141
100.0
290
     0
  0
SCALE
  5
29500
102
{ACAD_REACTORS
330
294F3
102
}
330
294F3
100
AcDbScale
 70
     0
300
2:1
140
2.0
141
1.0
290
     0
  0
SCALE
  5
29501
102
{ACAD_REACTORS
330
294F3
102
}
330
294F3
100
AcDbScale
 70
     0
300
4:1
140
4.0
141
1.0
290
     0
  0
SCALE
  5
29502
102
{ACAD_REACTORS
330
294F3
102
}
330
294F3
100
AcDbScale
 70
     0
300
8:1
140
8.0
141
1.0
290
     0
  0
SCALE
  5
29503
102
{ACAD_REACTORS
330
294F3
102
}
330
294F3
100
AcDbScale
 70
     0
300
10:1
140
10.0
141
1.0
290
     0
  0
SCALE
  5
29504
102
{ACAD_REACTORS
330
294F3
102
}
330
294F3
100
AcDbScale
 70
     0
300
100:1
140
100.0
141
1.0
290
     0
  0
TABLESTYLE
  5
1E
102
{ACAD_XDICTIONARY
360
29598
102
}
102
{ACAD_REACTORS
330
1D
102
}
330
1D
100
AcDbTableStyle
  3
Standard
 70
     0
 71
     0
 40
1.5
 41
1.5
280
     0
281
     0
  7
Standard
140
4.5
170
     2
 62
     0
 63
     7
283
     0
274
    -2
284
     1
 64
     0
275
    -2
285
     1
 65
     0
276
    -2
286
     1
 66
     0
277
    -2
287
     1
 67
     0
278
    -2
288
     1
 68
     0
279
    -2
289
     1
 69
     0
  7
Standard
140
6.0
170
     5
 62
     0
 63
     7
283
     0
274
    -2
284
     1
 64
     0
275
    -2
285
     1
 65
     0
276
    -2
286
     1
 66
     0
277
    -2
287
     1
 67
     0
278
    -2
288
     1
 68
     0
279
    -2
289
     1
 69
     0
  7
Standard
140
4.5
170
     5
 62
     0
 63
     7
283
     0
274
    -2
284
     1
 64
     0
275
    -2
285
     1
 65
     0
276
    -2
286
     1
 66
     0
277
    -2
287
     1
 67
     0
278
    -2
288
     1
 68
     0
279
    -2
289
     1
 69
     0
  0
VISUALSTYLE
  5
9930
102
{ACAD_XDICTIONARY
360
29A00
102
}
102
{ACAD_REACTORS
330
992A
102
}
330
992A
100
AcDbVisualStyle
  2

 70
     4
 71
     0
 72
     2
 73
     0
 90
        0
 40
-0.6
 41
-30.0
 62
     5
 63
     7
 74
     1
 91
        4
 64
     7
 65
   257
 75
     1
175
     1
 42
1.0
 92
        0
 66
   257
 43
1.0
 76
     1
 77
     6
 78
     2
 67
     7
 79
     5
170
     0
171
     0
290
     0
174
     0
 93
        1
 44
0.0
173
     0
291
     0
 45
0.0
1001
ACAD
1000
AcDbSavedByObjectVersion
1070
     0
  0
VISUALSTYLE
  5
21BFF
102
{ACAD_XDICTIONARY
360
29A15
102
}
102
{ACAD_REACTORS
330
992A
102
}
330
992A
100
AcDbVisualStyle
  2

 70
     6
 71
     1
 72
     2
 73
     2
 90
        0
 40
-0.6
 41
-30.0
 62
     5
 63
     7
 74
     2
 91
        2
 64
     7
 65
   257
 75
     2
175
     1
 42
40.0
 92
        0
 66
   257
 43
1.0
 76
     1
 77
     6
 78
     2
 67
     7
 79
     3
170
     0
171
     0
290
     0
174
     0
 93
        1
 44
0.0
173
     0
291
     0
 45
0.0
1001
ACAD
1000
AcDbSavedByObjectVersion
1070
     0
  0
VISUALSTYLE
  5
21BFE
102
{ACAD_XDICTIONARY
360
29A13
102
}
102
{ACAD_REACTORS
330
992A
102
}
330
992A
100
AcDbVisualStyle
  2

 70
     5
 71
     0
 72
     2
 73
     0
 90
        0
 40
-0.6
 41
-30.0
 62
     5
 63
     7
 74
     1
 91
        4
 64
     7
 65
   257
 75
     1
175
     1
 42
1.0
 92
        0
 66
   257
 43
1.0
 76
     1
 77
     6
 78
     2
 67
     7
 79
     5
170
     0
171
     0
290
     0
174
     0
 93
        1
 44
0.0
173
     0
291
     0
 45
0.0
1001
ACAD
1000
AcDbSavedByObjectVersion
1070
     0
  0
VISUALSTYLE
  5
992F
102
{ACAD_XDICTIONARY
360
299FE
102
}
102
{ACAD_REACTORS
330
992A
102
}
330
992A
100
AcDbVisualStyle
  2

 70
     7
 71
     1
 72
     0
 73
     1
 90
        0
 40
-0.6
 41
-30.0
 62
     5
 63
     7
 74
     0
 91
        4
 64
     7
 65
   257
 75
     1
175
     1
 42
1.0
 92
        8
 66
     7
 43
1.0
 76
     1
 77
     6
 78
     2
 67
     7
 79
     5
170
     0
171
     0
290
     0
174
     0
 93
        1
 44
0.0
173
     0
291
     1
 45
0.0
1001
ACAD
1000
AcDbSavedByObjectVersion
1070
     0
  0
VISUALSTYLE
  5
9936
102
{ACAD_XDICTIONARY
360
29A04
102
}
102
{ACAD_REACTORS
330
992A
102
}
330
992A
100
AcDbVisualStyle
  2

 70
    12
 71
     2
 72
     2
 73
     0
 90
        0
 40
-0.6
 41
-30.0
 62
     5
 63
     7
 74
     1
 91
        4
 64
     7
 65
   257
 75
     1
175
     1
 42
1.0
 92
        8
 66
     7
 43
1.0
 76
     1
 77
     6
 78
     2
 67
     7
 79
     5
170
     0
171
     0
290
     0
174
     0
 93
        1
 44
50.0
173
     0
291
     1
 45
0.0
1001
ACAD
1000
AcDbSavedByObjectVersion
1070
     0
  0
VISUALSTYLE
  5
993A
102
{ACAD_XDICTIONARY
360
29A0C
102
}
102
{ACAD_REACTORS
330
992A
102
}
330
992A
100
AcDbVisualStyle
  2

 70
    16
 71
     2
 72
     2
 73
     3
 90
        0
 40
-0.6
 41
-30.0
 62
     5
 63
     8
 74
     1
 91
        4
 64
     7
 65
   257
 75
     1
175
     1
 42
1.0
 92
        8
 66
     8
 43
1.0
 76
     1
 77
     6
 78
     2
 67
     7
 79
     5
170
     0
171
     0
290
     0
174
     0
 93
        1
 44
0.0
173
     0
291
     1
 45
0.0
1001
ACAD
1000
AcDbSavedByObjectVersion
1070
     0
  0
VISUALSTYLE
  5
21C00
102
{ACAD_XDICTIONARY
360
29A17
102
}
102
{ACAD_REACTORS
330
992A
102
}
330
992A
100
AcDbVisualStyle
  2

 70
     9
 71
     3
 72
     2
 73
     0
 90
        0
 40
-0.6
 41
-30.0
 62
     5
 63
     7
 74
     2
 91
        2
 64
     7
 65
   257
 75
     1
175
     1
 42
40.0
 92
        8
 66
     7
 43
1.0
 76
     1
 77
     6
 78
     2
 67
     7
 79
     3
170
     0
171
     0
290
     0
174
     0
 93
        1
 44
0.0
173
     0
291
     0
 45
0.0
1001
ACAD
1000
AcDbSavedByObjectVersion
1070
     0
  0
VISUALSTYLE
  5
9935
102
{ACAD_XDICTIONARY
360
29A02
102
}
102
{ACAD_REACTORS
330
992A
102
}
330
992A
100
AcDbVisualStyle
  2

 70
    11
 71
     2
 72
     2
 73
     0
 90
        0
 40
-0.6
 41
-30.0
 62
     5
 63
     7
 74
     1
 91
        4
 64
     7
 65
   257
 75
     1
175
     1
 42
1.0
 92
        8
 66
     7
 43
1.0
 76
     1
 77
     6
 78
     2
 67
     7
 79
     5
170
     0
171
     0
290
     0
174
     0
 93
        1
 44
-50.0
173
     0
291
     1
 45
0.0
1001
ACAD
1000
AcDbSavedByObjectVersion
1070
     0
  0
VISUALSTYLE
  5
294F2
102
{ACAD_XDICTIONARY
360
29A2D
102
}
102
{ACAD_REACTORS
330
992A
102
}
330
992A
100
AcDbVisualStyle
  2

 70
    22
 71
     2
 72
     2
 73
     0
 90
        0
 40
-0.6
 41
-30.0
 62
     5
 63
     7
 74
     1
 91
        4
 64
     7
 65
   257
 75
     1
175
     1
 42
1.0
 92
        8
 66
     7
 43
1.0
 76
     1
 77
     6
 78
     2
 67
     7
 79
     5
170
     0
171
     0
290
     0
174
     0
 93
        1
 44
0.0
173
     0
291
     1
 45
0.0
1001
ACAD
1000
AcDbSavedByObjectVersion
1070
     0
  0
VISUALSTYLE
  5
9939
102
{ACAD_XDICTIONARY
360
29A0A
102
}
102
{ACAD_REACTORS
330
992A
102
}
330
992A
100
AcDbVisualStyle
  2

 70
    15
 71
     2
 72
     2
 73
     0
 90
        0
 40
-0.6
 41
-30.0
 62
     5
 63
     7
 74
     1
 91
        4
 64
     7
 65
   257
 75
     1
175
     1
 42
1.0
 92
        8
 66
     7
 43
1.0
 76
     1
 77
     6
 78
     2
 67
     7
 79
     5
170
     0
171
     0
290
     0
174
     0
 93
        1
 44
0.0
173
     0
291
     1
 45
0.0
1001
ACAD
1000
AcDbSavedByObjectVersion
1070
     0
  0
VISUALSTYLE
  5
992B
102
{ACAD_XDICTIONARY
360
299F6
102
}
102
{ACAD_REACTORS
330
992A
102
}
330
992A
100
AcDbVisualStyle
  2

 70
     0
 71
     2
 72
     1
 73
     1
 90
        2
 40
-0.6
 41
30.0
 62
     5
 63
     7
 74
     0
 91
        4
 64
     7
 65
   257
 75
     1
175
     1
 42
1.0
 92
        8
 66
     7
 43
1.0
 76
     1
 77
     6
 78
     2
 67
     7
 79
     5
170
     0
171
     0
290
     0
174
     0
 93
       13
 44
0.0
173
     0
291
     1
 45
0.0
1001
ACAD
1000
AcDbSavedByObjectVersion
1070
     0
  0
VISUALSTYLE
  5
992C
102
{ACAD_XDICTIONARY
360
299F8
102
}
102
{ACAD_REACTORS
330
992A
102
}
330
992A
100
AcDbVisualStyle
  2

 70
     1
 71
     2
 72
     1
 73
     1
 90
        2
 40
-0.6
 41
30.0
 62
     5
 63
     7
 74
     1
 91
        4
 64
     7
 65
   257
 75
     1
175
     1
 42
1.0
 92
        0
 66
   257
 43
1.0
 76
     1
 77
     6
 78
     2
 67
     7
 79
     5
170
     0
171
     0
290
     0
174
     0
 93
       13
 44
0.0
173
     0
291
     1
 45
0.0
1001
ACAD
1000
AcDbSavedByObjectVersion
1070
     0
  0
VISUALSTYLE
  5
992D
102
{ACAD_XDICTIONARY
360
299FA
102
}
102
{ACAD_REACTORS
330
992A
102
}
330
992A
100
AcDbVisualStyle
  2

 70
     2
 71
     2
 72
     2
 73
     1
 90
        2
 40
-0.6
 41
30.0
 62
     5
 63
     7
 74
     0
 91
        4
 64
     7
 65
   257
 75
     1
175
     1
 42
1.0
 92
        0
 66
     7
 43
1.0
 76
     1
 77
     6
 78
     2
 67
     7
 79
     5
170
     0
171
     0
290
     0
174
     0
 93
       13
 44
0.0
173
     0
291
     1
 45
0.0
1001
ACAD
1000
AcDbSavedByObjectVersion
1070
     0
  0
VISUALSTYLE
  5
992E
102
{ACAD_XDICTIONARY
360
299FC
102
}
102
{ACAD_REACTORS
330
992A
102
}
330
992A
100
AcDbVisualStyle
  2

 70
     3
 71
     2
 72
     2
 73
     1
 90
        2
 40
-0.6
 41
30.0
 62
     5
 63
     7
 74
     1
 91
        4
 64
     7
 65
   257
 75
     1
175
     1
 42
1.0
 92
        0
 66
   257
 43
1.0
 76
     1
 77
     6
 78
     2
 67
     7
 79
     5
170
     0
171
     0
290
     0
174
     0
 93
       13
 44
0.0
173
     0
291
     1
 45
0.0
1001
ACAD
1000
AcDbSavedByObjectVersion
1070
     0
  0
VISUALSTYLE
  5
294EA
102
{ACAD_XDICTIONARY
360
29A1D
102
}
102
{ACAD_REACTORS
330
992A
102
}
330
992A
100
AcDbVisualStyle
  2

 70
     6
 71
     1
 72
     2
 73
     2
 90
        0
 40
-0.6
 41
-30.0
 62
     5
 63
     7
 74
     2
 91
        2
 64
     7
 65
   257
 75
     2
175
     1
 42
40.0
 92
        0
 66
   257
 43
1.0
 76
     1
 77
     6
 78
     2
 67
     7
 79
     3
170
     0
171
     0
290
     0
174
     0
 93
        1
 44
0.0
173
     0
291
     0
 45
0.0
1001
ACAD
1000
AcDbSavedByObjectVersion
1070
     0
  0
VISUALSTYLE
  5
294F0
102
{ACAD_XDICTIONARY
360
29A29
102
}
102
{ACAD_REACTORS
330
992A
102
}
330
992A
100
AcDbVisualStyle
  2

 70
    20
 71
     2
 72
     2
 73
     0
 90
        0
 40
-0.6
 41
-30.0
 62
     5
 63
     7
 74
     1
 91
        4
 64
     7
 65
   257
 75
     1
175
     1
 42
1.0
 92
       10
 66
     7
 43
1.0
 76
     1
 77
     6
 78
     2
 67
     7
 79
     5
170
     0
171
     0
290
     0
174
     0
 93
        1
 44
0.0
173
     0
291
     1
 45
0.0
1001
ACAD
1000
AcDbSavedByObjectVersion
1070
     0
  0
VISUALSTYLE
  5
9938
102
{ACAD_XDICTIONARY
360
29A08
102
}
102
{ACAD_REACTORS
330
992A
102
}
330
992A
100
AcDbVisualStyle
  2

 70
    14
 71
     2
 72
     2
 73
     0
 90
        0
 40
-0.6
 41
-30.0
 62
     5
 63
     7
 74
     1
 91
        4
 64
     7
 65
   257
 75
     7
175
     7
 42
1.0
 92
        8
 66
     7
 43
1.0
 76
     1
 77
     6
 78
     2
 67
     7
 79
     5
170
     0
171
     0
290
     0
174
     0
 93
        1
 44
0.0
173
     0
291
     1
 45
0.0
1001
ACAD
1000
AcDbSavedByObjectVersion
1070
     0
  0
VISUALSTYLE
  5
294F1
102
{ACAD_XDICTIONARY
360
29A2B
102
}
102
{ACAD_REACTORS
330
992A
102
}
330
992A
100
AcDbVisualStyle
  2

 70
    21
 71
     2
 72
     2
 73
     0
 90
        0
 40
-0.6
 41
-30.0
 62
     5
 63
     7
 74
     1
 91
        4
 64
     7
 65
   257
 75
     1
175
     1
 42
1.0
 92
        9
 66
     7
 43
1.0
 76
     1
 77
     6
 78
     2
 67
     7
 79
     5
170
     0
171
     0
290
     0
174
     0
 93
        1
 44
0.0
173
     0
291
     1
 45
0.0
1001
ACAD
1000
AcDbSavedByObjectVersion
1070
     0
  0
VISUALSTYLE
  5
21C01
102
{ACAD_XDICTIONARY
360
29A19
102
}
102
{ACAD_REACTORS
330
992A
102
}
330
992A
100
AcDbVisualStyle
  2

 70
     8
 71
     2
 72
     2
 73
     0
 90
        0
 40
-0.6
 41
-30.0
 62
     5
 63
     7
 74
     1
 91
        0
 64
     7
 65
   257
 75
     1
175
     1
 42
1.0
 92
        8
 66
     8
 43
1.0
 76
     1
 77
     6
 78
     2
 67
     7
 79
     5
170
     0
171
     0
290
     0
174
     0
 93
       13
 44
0.0
173
     0
291
     0
 45
0.0
1001
ACAD
1000
AcDbSavedByObjectVersion
1070
     0
  0
VISUALSTYLE
  5
294EF
102
{ACAD_XDICTIONARY
360
29A27
102
}
102
{ACAD_REACTORS
330
992A
102
}
330
992A
100
AcDbVisualStyle
  2

 70
    27
 71
     2
 72
     2
 73
     1
 90
        2
 40
-0.6
 41
30.0
 62
     5
 63
     7
 74
     0
 91
        4
 64
     7
 65
   257
 75
     1
175
     1
 42
1.0
 92
        8
 66
   257
 43
1.0
 76
     1
 77
     6
 78
     2
 67
     8
 79
     3
170
     0
171
     0
290
     0
174
     0
 93
        5
 44
0.0
173
     0
291
     0
 45
0.0
1001
ACAD
1000
AcDbSavedByObjectVersion
1070
     0
  0
VISUALSTYLE
  5
294EE
102
{ACAD_XDICTIONARY
360
29A25
102
}
102
{ACAD_REACTORS
330
992A
102
}
330
992A
100
AcDbVisualStyle
  2

 70
    26
 71
     2
 72
     2
 73
     1
 90
        2
 40
-0.6
 41
30.0
 62
     5
 63
     7
 74
     1
 91
       10
 64
     7
 65
   257
 75
     2
175
     1
 42
1.0
 92
        8
 66
   257
 43
1.0
 76
     1
 77
     6
 78
     2
 67
     7
 79
     3
170
     0
171
     0
290
     0
174
     0
 93
        5
 44
0.0
173
     0
291
     0
 45
0.0
1001
ACAD
1000
AcDbSavedByObjectVersion
1070
     0
  0
VISUALSTYLE
  5
294EB
102
{ACAD_XDICTIONARY
360
29A1F
102
}
102
{ACAD_REACTORS
330
992A
102
}
330
992A
100
AcDbVisualStyle
  2

 70
    23
 71
     2
 72
     2
 73
     3
 90
        0
 40
-0.6
 41
-30.0
 62
     5
 63
     7
 74
     2
 91
        2
 64
     7
 65
     7
 75
     1
175
     1
 42
40.0
 92
        8
 66
     7
 43
1.0
 76
     1
 77
     6
 78
     2
 67
     7
 79
     3
170
     0
171
     0
290
     0
174
     0
 93
        1
 44
0.0
173
     0
291
     0
 45
0.0
1001
ACAD
1000
AcDbSavedByObjectVersion
1070
     0
  0
VISUALSTYLE
  5
294EC
102
{ACAD_XDICTIONARY
360
29A21
102
}
102
{ACAD_REACTORS
330
992A
102
}
330
992A
100
AcDbVisualStyle
  2

 70
    24
 71
     1
 72
     2
 73
     2
 90
        0
 40
-0.6
 41
-30.0
 62
     5
 63
     7
 74
     2
 91
        2
 64
     7
 65
     7
 75
     1
175
     1
 42
40.0
 92
       11
 66
     7
 43
1.0
 76
     1
 77
     6
 78
     2
 67
     7
 79
     6
170
     0
171
     0
290
     0
174
     0
 93
        1
 44
0.0
173
     0
291
     0
 45
0.0
1001
ACAD
1000
AcDbSavedByObjectVersion
1070
     0
  0
VISUALSTYLE
  5
9937
102
{ACAD_XDICTIONARY
360
29A06
102
}
102
{ACAD_REACTORS
330
992A
102
}
330
992A
100
AcDbVisualStyle
  2

 70
    13
 71
     2
 72
     2
 73
     0
 90
        0
 40
-0.6
 41
-30.0
 62
     5
 63
     7
 74
     1
 91
        4
 64
     7
 65
   257
 75
     1
175
     1
 42
1.0
 92
       12
 66
     7
 43
1.0
 76
     1
 77
     6
 78
     2
 67
     7
 79
     5
170
     0
171
     0
290
     0
174
     0
 93
        1
 44
0.0
173
     0
291
     1
 45
0.0
1001
ACAD
1000
AcDbSavedByObjectVersion
1070
     0
  0
VISUALSTYLE
  5
294E9
102
{ACAD_XDICTIONARY
360
29A1B
102
}
102
{ACAD_REACTORS
330
992A
102
}
330
992A
100
AcDbVisualStyle
  2

 70
     5
 71
     0
 72
     2
 73
     0
 90
        0
 40
-0.6
 41
-30.0
 62
     5
 63
     7
 74
     1
 91
        4
 64
     7
 65
   257
 75
     1
175
     1
 42
1.0
 92
        0
 66
   257
 43
1.0
 76
     1
 77
     6
 78
     2
 67
     7
 79
     3
170
     0
171
     0
290
     0
174
     0
 93
        1
 44
0.0
173
     0
291
     0
 45
0.0
1001
ACAD
1000
AcDbSavedByObjectVersion
1070
     0
  0
VISUALSTYLE
  5
294ED
102
{ACAD_XDICTIONARY
360
29A23
102
}
102
{ACAD_REACTORS
330
992A
102
}
330
992A
100
AcDbVisualStyle
  2

 70
    25
 71
     2
 72
     2
 73
     1
 90
        1
 40
0.5
 41
-30.0
 62
     5
 63
     7
 74
     1
 91
        0
 64
     7
 65
   257
 75
     1
175
     1
 42
1.0
 92
        8
 66
     7
 43
1.0
 76
     1
 77
     6
 78
     2
 67
     7
 79
     3
170
     0
171
     0
290
     0
174
     0
 93
       13
 44
0.0
173
     0
291
     0
 45
0.0
1001
ACAD
1000
AcDbSavedByObjectVersion
1070
     0
  0
DICTIONARYVAR
  5
29596
102
{ACAD_REACTORS
330
8F
102
}
330
8F
100
DictionaryVariables
280
     0
  1
1:1
  0
DICTIONARYVAR
  5
29595
102
{ACAD_REACTORS
330
8F
102
}
330
8F
100
DictionaryVariables
280
     0
  1
STANDARD
  0
DICTIONARYVAR
  5
90
102
{ACAD_REACTORS
330
8F
102
}
330
8F
100
DictionaryVariables
280
     0
  1
STANDARD
  0
DICTIONARYVAR
  5
21F51
102
{ACAD_REACTORS
330
8F
102
}
330
8F
100
DictionaryVariables
280
     0
  1
2
  0
DICTIONARYVAR
  5
21F50
102
{ACAD_REACTORS
330
8F
102
}
330
8F
100
DictionaryVariables
280
     0
  1
1
  0
DICTIONARYVAR
  5
21F4F
102
{ACAD_REACTORS
330
8F
102
}
330
8F
100
DictionaryVariables
280
     0
  1
0
  0
DICTIONARYVAR
  5
21F4E
102
{ACAD_REACTORS
330
8F
102
}
330
8F
100
DictionaryVariables
280
     0
  1
127
  0
DICTIONARYVAR
  5
29971
102
{ACAD_REACTORS
330
8F
102
}
330
8F
100
DictionaryVariables
280
     0
  1
2
  0
DICTIONARY
  5
1264C
330
1263F
100
AcDbDictionary
280
     1
281
     1
  3
ACAD_XREC_ROUNDTRIP
360
29A0E
  3
ADSK_XREC_LAYOUTTHUMBNAIL
360
1264D
  0
DICTIONARY
  5
299F4
330
26
100
AcDbDictionary
280
     1
281
     1
  3
ACAD_XREC_ROUNDTRIP
360
299F5
  0
DICTIONARY
  5
294C4
330
9928
100
AcDbDictionary
280
     1
281
     1
  3
ACAD_XREC_ROUNDTRIP
360
294C5
  0
DICTIONARY
  5
294C2
330
9927
100
AcDbDictionary
280
     1
281
     1
  3
ACAD_XREC_ROUNDTRIP
360
294C3
  0
DICTIONARY
  5
294C6
330
9929
100
AcDbDictionary
280
     1
281
     1
  3
ACAD_XREC_ROUNDTRIP
360
294C7
  0
DICTIONARY
  5
29598
330
1E
100
AcDbDictionary
280
     1
281
     1
  3
ACAD_ROUNDTRIP_2008_TABLESTYLE_CELLSTYLEMAP
360
299F0
  3
ACAD_XREC_ROUNDTRIP
360
299F3
  0
DICTIONARY
  5
29A00
330
9930
100
AcDbDictionary
280
     1
281
     1
  3
ACAD_XREC_ROUNDTRIP
360
29A01
  0
DICTIONARY
  5
29A15
330
21BFF
100
AcDbDictionary
280
     1
281
     1
  3
ACAD_XREC_ROUNDTRIP
360
29A16
  0
DICTIONARY
  5
29A13
330
21BFE
100
AcDbDictionary
280
     1
281
     1
  3
ACAD_XREC_ROUNDTRIP
360
29A14
  0
DICTIONARY
  5
299FE
330
992F
100
AcDbDictionary
280
     1
281
     1
  3
ACAD_XREC_ROUNDTRIP
360
299FF
  0
DICTIONARY
  5
29A04
330
9936
100
AcDbDictionary
280
     1
281
     1
  3
ACAD_XREC_ROUNDTRIP
360
29A05
  0
DICTIONARY
  5
29A0C
330
993A
100
AcDbDictionary
280
     1
281
     1
  3
ACAD_XREC_ROUNDTRIP
360
29A0D
  0
DICTIONARY
  5
29A17
330
21C00
100
AcDbDictionary
280
     1
281
     1
  3
ACAD_XREC_ROUNDTRIP
360
29A18
  0
DICTIONARY
  5
29A02
330
9935
100
AcDbDictionary
280
     1
281
     1
  3
ACAD_XREC_ROUNDTRIP
360
29A03
  0
DICTIONARY
  5
29A2D
330
294F2
100
AcDbDictionary
280
     1
281
     1
  3
ACAD_XREC_ROUNDTRIP
360
29A2E
  0
DICTIONARY
  5
29A0A
330
9939
100
AcDbDictionary
280
     1
281
     1
  3
ACAD_XREC_ROUNDTRIP
360
29A0B
  0
DICTIONARY
  5
299F6
330
992B
100
AcDbDictionary
280
     1
281
     1
  3
ACAD_XREC_ROUNDTRIP
360
299F7
  0
DICTIONARY
  5
299F8
330
992C
100
AcDbDictionary
280
     1
281
     1
  3
ACAD_XREC_ROUNDTRIP
360
299F9
  0
DICTIONARY
  5
299FA
330
992D
100
AcDbDictionary
280
     1
281
     1
  3
ACAD_XREC_ROUNDTRIP
360
299FB
  0
DICTIONARY
  5
299FC
330
992E
100
AcDbDictionary
280
     1
281
     1
  3
ACAD_XREC_ROUNDTRIP
360
299FD
  0
DICTIONARY
  5
29A1D
330
294EA
100
AcDbDictionary
280
     1
281
     1
  3
ACAD_XREC_ROUNDTRIP
360
29A1E
  0
DICTIONARY
  5
29A29
330
294F0
100
AcDbDictionary
280
     1
281
     1
  3
ACAD_XREC_ROUNDTRIP
360
29A2A
  0
DICTIONARY
  5
29A08
330
9938
100
AcDbDictionary
280
     1
281
     1
  3
ACAD_XREC_ROUNDTRIP
360
29A09
  0
DICTIONARY
  5
29A2B
330
294F1
100
AcDbDictionary
280
     1
281
     1
  3
ACAD_XREC_ROUNDTRIP
360
29A2C
  0
DICTIONARY
  5
29A19
330
21C01
100
AcDbDictionary
280
     1
281
     1
  3
ACAD_XREC_ROUNDTRIP
360
29A1A
  0
DICTIONARY
  5
29A27
330
294EF
100
AcDbDictionary
280
     1
281
     1
  3
ACAD_XREC_ROUNDTRIP
360
29A28
  0
DICTIONARY
  5
29A25
330
294EE
100
AcDbDictionary
280
     1
281
     1
  3
ACAD_XREC_ROUNDTRIP
360
29A26
  0
DICTIONARY
  5
29A1F
330
294EB
100
AcDbDictionary
280
     1
281
     1
  3
ACAD_XREC_ROUNDTRIP
360
29A20
  0
DICTIONARY
  5
29A21
330
294EC
100
AcDbDictionary
280
     1
281
     1
  3
ACAD_XREC_ROUNDTRIP
360
29A22
  0
DICTIONARY
  5
29A06
330
9937
100
AcDbDictionary
280
     1
281
     1
  3
ACAD_XREC_ROUNDTRIP
360
29A07
  0
DICTIONARY
  5
29A1B
330
294E9
100
AcDbDictionary
280
     1
281
     1
  3
ACAD_XREC_ROUNDTRIP
360
29A1C
  0
DICTIONARY
  5
29A23
330
294ED
100
AcDbDictionary
280
     1
281
     1
  3
ACAD_XREC_ROUNDTRIP
360
29A24
  0
XRECORD
  5
29A0E
102
{ACAD_REACTORS
330
1264C
102
}
330
1264C
100
AcDbXrecord
280
     1
102
SHADEPLOT
 70
     0
102
SHADEPLOTRESLEVEL
 70
     2
102
SHADEPLOTCUSTOMDPI
 70
   300
  0
XRECORD
  5
1264D
102
{ACAD_REACTORS
330
1264C
102
}
330
1264C
100
AcDbXrecord
280
     1
310
28000000B400000075000000010008000000000044520000000000000000000000010000000000009900720000000000FFFFFF000000000000000000000000000000000000000000000000000000000000000000330000006600000099000000CC000000FF00000000330000333300006633000099330000CC330000FF3300
310
0000660000336600006666000099660000CC660000FF66000000990000339900006699000099990000CC990000FF99000000CC000033CC000066CC000099CC0000CCCC0000FFCC000000FF000033FF000066FF000099FF0000CCFF0000FFFF000000003300330033006600330099003300CC003300FF003300003333003333
310
33006633330099333300CC333300FF33330000663300336633006666330099663300CC663300FF66330000993300339933006699330099993300CC993300FF99330000CC330033CC330066CC330099CC3300CCCC3300FFCC330000FF330033FF330066FF330099FF3300CCFF3300FFFF330000006600330066006600660099
310
006600CC006600FF00660000336600333366006633660099336600CC336600FF33660000666600336666006666660099666600CC666600FF66660000996600339966006699660099996600CC996600FF99660000CC660033CC660066CC660099CC6600CCCC6600FFCC660000FF660033FF660066FF660099FF6600CCFF6600
310
FFFF660000009900330099006600990099009900CC009900FF00990000339900333399006633990099339900CC339900FF33990000669900336699006666990099669900CC669900FF66990000999900339999006699990099999900CC999900FF99990000CC990033CC990066CC990099CC9900CCCC9900FFCC990000FF99
310
0033FF990066FF990099FF9900CCFF9900FFFF99000000CC003300CC006600CC009900CC00CC00CC00FF00CC000033CC003333CC006633CC009933CC00CC33CC00FF33CC000066CC003366CC006666CC009966CC00CC66CC00FF66CC000099CC003399CC006699CC009999CC00CC99CC00FF99CC0000CCCC0033CCCC0066CC
310
CC0099CCCC00CCCCCC00FFCCCC0000FFCC0033FFCC0066FFCC0099FFCC00CCFFCC00FFFFCC000000FF003300FF006600FF009900FF00CC00FF00FF00FF000033FF003333FF006633FF009933FF00CC33FF00FF33FF000066FF003366FF006666FF009966FF00CC66FF00FF66FF000099FF003399FF006699FF009999FF00CC
310
99FF00FF99FF0000CCFF0033CCFF0066CCFF0099CCFF00CCCCFF00FFCCFF0000FFFF0033FFFF0066FFFF0099FFFF00CCFFFF00FFFFFF00000000000D0D0D001A1A1A00282828003535350043434300505050005D5D5D006B6B6B00787878008686860093939300A1A1A100AEAEAE00BBBBBB00C9C9C900D6D6D600E4E4E400
310
F1F1F100FFFFFF0000000000000000000000000000000000000000000000000000000000000000000000000000000000EFEFE2E2E2E2E2E2E2E2E2E2E2E2E2E2E2E2E2E2E2E2E2E2E2E2E2E2E2E2E2E2E2E2E2E2E2E2E2E2E2E2E2E2E2E2E2E2E2E2E2E2E2E2E2E2E2E2E2E2E2E2E2E2E2E2E2E2E2E2E2E2E2E2E2E2E2E2E2
310
E2E2E2E2E2E2E2E2E2E2E2E2E2E2E2E2E2E2E2E2E2E2E2E2E2E2E2E2E2E2E2E2E2E2E2E2E2E2E2E2E2E2E2E2E2E2E2E2E2E2E2E2E2E2E2E2E2E2E2E2E2E2E2E2E2E2E2E2E2E2E2E2E2E2E2E2E2E2E2E2E2E2E2E2E2E2E2E2E2E2E2E2E2E2E2E2E2E2E2E2E2E2E2E2E2E2E2E2E2E2E2E2E2E2E2E2E2E2E2E2E2E2E2E2E2E2E2
310
E2E2E2E2E2E2E2E2E2E2E2E2E2E2E2E2E2E2E2E2E2E2E2E2E2E2E2E2E2E2E2E2E2E2E2E2E2E2E2E2E2E2E2E2E2E2E2E2E2E2E2E2E2E2E2E2E2E2E2E2E2E2E2E2E2E2E2E2E2E2E2E2E2E2E2E2E2E2E2E2E2E2E2E2E2E2E2E2E2E2E2E2E2E2E2E2E2E2E2E2E2E2E2E2E2E2E2E2E2E2E2E2E2E2E2E2E2E2E2E2E2E2E2E2E2E2E2
310
E2E2E2E2E2E2E2E2E2E2E2E2E2E2E2E2E2E2E2E2E2E2E2E2E2E2E2E2E25555555555555555555555555555555555555555555555555555555555555555555555555555555555555555555555555555555555555555555555555555555555555555555555555555555555555555555555555555555555555555555555555555
310
555555555555555555555555555555555555555555555555555555555555555555555555555555555555555555555555555555555555555555555555555555555555555555555555555555555555E2E2E2E2555555555555555555555555555555555555555555555555555555555555555555555555555555555555555555
310
55555555555555555555555555555555555555555555555555555555555555555555555555555555555555555555555555555555555555555555555555555555555555555555555555555555555555555555555555555555555555555555555555555555555555555555555555555555555555555555555555555555555555
310
55555555E2E2E2E25555555555555555555555555555555555555555555555555555555555555555555555555555555555555555555555555555555555555555555555555555555555555555555555555555555555555555555555555555555555555555555555555555555555555555555555555555555555555555555555
310
555555555555555555555555555555555555555555555555555555555555555555555555555555555555555555555555555555555555555555E2E2E2E2555555555555555555555555555555555555555555555555555555555555555555555555555555555555555555555555555555555555555555555555555555555555
310
5555555555555555555555555555555555555555555555555555555555555555555555555555555555555555555555555555555555555555555555555555555555555555555555555555555555555555555555555555555555555555555555555555555555555555555555555555E2E2E2E255555555555555555555555555
310
55555555555555555555555555555555555555555555555555555555555555555555555555555555555555555555555555555555555555555555555555555555555555555555555555555555555555555555555555555555555555555555555555555555555555555555555555555555555555555555555555555555555555
310
555555555555555555555555555555555555555555555555555555555555555555555555E2E2E2E2555555555555555555555555555555555555555555555555555555555555555555555555555555555555555555555555555555555555555555555555555555555555555555555555555555555555555555555555555555
310
5555555555555555555555555555555555555555555555555555555555555555555555555555555555555555555555555555555555555555555555555555555555555555555555555555555555555555555555555555555555E2E2E2E255555555555555555555555555555555555555555555555555555555555555555555
310
55555555555555555555555555555555555555555555555555555555555555555555555555555555555555555555555555555555555555555555555555555555555555555555555555555555555555555555555555555555555555555555555555555555555555555555555555555555555555555555555555555555555555
310
555555555555555555555555555555E2E2E255555555555555555555555555555555555555555555555555555555555555555555555555555555555555555555555555555555555555555555555555555555555555555555555555555555555555555555555555555555555555555555555555555555555555555555555555
310
555555555555555555555555555555555555555555555555555555555555555555555555555555555555555555555555555555555555555555555555555555555555555555E2E25555555555555555555555555555555555555555555555555555555555555555555555555555555555555555555555555555555555555555
310
5555555555555555555555555555555555555555555555555555555555555555555555555555555555555555555555555555555555555555555555555555555555555555555555555555555555555555555555555555555555555555555555555555555555555555555555555555555555555555555555555555E2E2555555
310
55555555555555555555555555555555555555555555555555555555555555555555555555555555555555555555555555555555555555555555555555555555555555555555555555555555555555555555555555555555555555555555555555555555555555555555555555555555555555555555555555555555555555
310
555555555555555555555555555555555555555555555555555555555555555555555555555555555555555555555555E2E25555555555555555555555555555555555555555555555555555555555555555555555555555555555555555555555555555555555555555555555555555555555555555555555555555555555
310
5555555555555555555555555555555555555555555555555555555555555555555555555555555555555555555555555555555555555555555555555555555555555555555555555555555555555555555555555555555555555555555555555555555555E2E2555555555555555555555555555555555555555555555555
310
55555555555555555555555555555555555555555555555555555555555555555555555555555555555555555555555555555555555555555555555555555555555555555555555555555555555555555555555555555555555555555555555555555555555555555555555555555555555555555555555555555555555555
310
555555555555555555555555555555555555555555555555555555E2E25555555555555555555555555555555555555555555555555555555555555555555555555555555555555555555555555555555555555555555555555555555555555555555555555555555555555555555555555555555555555555555555555555
310
5555555555555555555555555555555555555555555555555555555555555555555555555555555555555555555555555555555555555555555555555555555555555555555555555555555555555555E2E2555555555555555555555555555555555555555555555555555555555555555555555555555555555555555555
310
55555555555555555555555555555555555555555555555555555555555555555555555555555555555555555555555555555555555555555555555555555555555555555555555555555555555555555555555555555555555555555555555555555555555555555555555555555555555555555555555555555555555555
310
555555555555E2E25555555555555555555555555555555555555555555555555555555555555555555555555555555555555555555555555555555555555555555555555555555555555555555555555555555555555555555555555555555555555555555555555555555555555555555555555555555555555555555555
310
5555555555555555555555555555555555555555555555555555555555555555555555555555555555555555555555555555555555555555555555E2E2E25555555555555555555555555555555555555555555555555555555555555555555555555555555555555555555555555555555555555555555555555555555555
310
555555555555555555555555555555555555555555555555555555555555555555555555555555555555555555555555555555555555555555555555555555555555555555555555555555555555555555555555555555555555555555555555555555555555555555555555555555E2E2E2E2555555555555555555555555
310
55555555555555555555555555555555555555555555555555555555555555555555555555555555555555555555555555555555555555555555555555555555555555555555555555555555555555555555555555555555555555555555555555555555555555555555555555555555555555555555555555555555555555
310
55555555555555555555555555555555555555555555555555555555555555555555555555E2E2E2E25555555555555555555555555555555555555555555555555555555555555555555555555555555555555555555555555555555555555555555555555555555555555555555555555555555555555555555555555555
310
555555555555555555555555555555555555555555555555555555555555555555555555555555555555555555555555555555555555555555555555555555555555555555555555555555555555555555555555555555555555E2E2E2E2555555555555555555555555555555555555555555555555555555555555555555
310
55555555555555555555555555555555555555555555555555555555555555555555555555555555555555555555555555555555555555555555555555555555555555555555555555555555555555555555555555555555555555555555555555555555555555555555555555555555555555555555555555555555555555
310
55555555555555555555555555555555E2E2E2E25555555555555555555555555555555555555555555555555555555555555555555555555555555555555555555555555555555555555555555555555555555555555555555555555555555555555555555555555555555555555555555555555555555555555555555555
310
555555555555555555555555555555555555555555555555555555555555555555555555555555555555555555555555555555555555555555555555555555555555555555E2E2E2E2555555555555555555555555555555555555555555555555555555555555555555555555555555555555555555555555555555555555
310
5555555555555555555555555555555555555555555555555555555555555555555555555555555555555555555555555555555555555555555555555555555555555555555555555555555555555555555555555555555555555555555555555555555555555555555555555555555555555555555555555555E2E2E2E255
310
55555555555555555555555555555555555555555555555555555555555555555555555555555555555555555555555555555555555555555555555555555555555555555555555555555555555555555555555555555555555555555555555555555555555555555555555555555555555555555555555555555555555555
310
555555555555555555555555555555555555555555555555555555555555555555555555555555555555555555555555E2E2E2E2555555555555555555555555555555555555555555555555555555555555555555555555555555555555555555555555555555555555555555555555555555555555555555555555555555
310
5555555555555555555555555555555555555555555555555555555555555555555555555555555555555555555555555555555555555555555555555555555555555555555555555555555555555555555555555555555555555555555555555555555555E2E2E2E255555555555555555555555555555555555555555555
310
55555555555555555555555555555555555555555555555555555555555555555555555555555555555555555555555555555555555555555555555555555555555555555555555555555555555555555555555555555555555555555555555555555555555555555555555555555555555555555555555555555555555555
310
555555555555555555555555555555555555555555555555555555E2E2E2E2555555555555555555555555555555555555555555555555555555555555555555555555555555555555555555555555555555555555555555555555555555555555555555555555555555555555555555555555555555555555555555555555
310
5555555555555555555555555555555555555555555555555555555555555555555555555555555555555555555555555555555555555555555555555555555555555555555555555555555555555555E2E2E2E255555555555555555555555555555555555555555555555555555555555555555555555555555555555555
310
55555555555555555555555555555555555555555555555555555555555555555555555555555555555555555555555555555555555555555555555555555555555555555555555555555555555555555555555555555555555555555555555555555555555555555555555555555555555555555555555555555555555555
310
555555555555E2E2E2E2555555555555555555555555555555555555555555555555555555555555555555555555555555555555555555555555555555555555555555555555555555555555555555555555555555555555555555555555555555555555555555555555555555555555555555555555555555555555555555
310
5555555555555555555555555555555555555555555555555555555555555555555555555555555555555555555555555555555555555555555555E2E2E2E255555555555555555555555555555555555555555555555555555555555555555555555555555555555555555555555555555555555555555555555555555555
310
55555555555555555555555555555555555555555555555555555555555555555555555555555555555555555555555555555555555555555555555555555555555555555555555555555555555555555555555555555555555555555555555555555555555555555555555555555555E2E2E2E25555555555555555555555
310
55555555555555555555555555555555555555555555555555555555555555555555555555555555555555555555555555555555555555555555555555555555555555555555555555555555555555555555555555555555555555555555555555555555555555555555555555555555555555555555555555555555555555
310
5555555555555555555555555555555555555555555555555555555555555555555555555555E2E2E2E255555555555555555555555555555555555555555555555555555555555555555555555555555555555555555555555555555555555555555555555555555555555555555555555555555555555555555555555555
310
55555555555555555555555555555555555555555555555555555555555555555555555555555555555555555555555555555555555555555555555555555555555555555555555555555555555555555555555555555555555555E2E2E2555555555555555555555555555555555555555555555555555555555555555555
310
55555555555555555555555555555555555555555555555555555555555555555555555555555555555555555555555555555555555555555555555555555555555555555555555555555555555555555555555555555555555555555555555555555555555555555555555555555555555555555555555555555555555555
310
555555555555555555555555555555555555E2E25555555555555555555555555555555555555555555555555555555555555555555555555555555555555555555555555555555555555555555555555555555555555555555555555555555555555555555555555555555555555555555555555555555555555555555555
310
5555555555555555555555555555555555555555555555555555555555555555555555555555555555555555555555555555555555555555555555555555555555555555555555E2E2555555555555555555555555555555555555555555555555555555555555555555555555555555555555555555555555555555555555
310
55555555555555555555555555555555555555555555555555555555555555555555555555555555555555555555555555555555555555555555555555555555555555555555555555555555555555555555555555555555555555555555555555555555555555555555555555555555555555555555555555555555E2E255
310
55555555555555555555555555555555555555555555555555555555555555555555555555555555555555555555555555555555555555555555555555555555555555555555555555555555555555555555555555555555555555555555555555555555555555555555555555555555555555555555555555555555555555
310
5555555555555555555555555555555555555555555555555555555555555555555555555555555555555555555555555555E2E2555555555555555555555555555555555555555555555555555555555555555555555555555555555555555555555555555555555555555555555555555555555555555555555555555555
310
55555555555555555555555555555555555555555555555555555555555555555555555555555555555555555555555555555555555555555555555555555555555555555555555555555555555555555555555555555555555555555555555555555555555555E2E255555555555555555555555555555555555555555555
310
55555555555555555555555555555555555555555555555555555555555555555555555555555555555555555555555555555555555555555555555555555555555555555555555555555555555555555555555555555555555555555555555555555555555555555555555555555555555555555555555555555555555555
310
5555555555555555555555555555555555555555555555555555555555E2E2555555555555555555555555555555555555555555555555555555555555555555555555555555555555555555555555555555555555555555555555555555555555555555555555555555555555555555555555555555555555555555555555
310
55555555555555555555555555555555555555555555555555555555555555555555555555555555555555555555555555555555555555555555555555555555555555555555555555555555555555555555E2E255555555555555555555555555555555555555555555555555555555555555555555555555555555555555
310
55555555555555555555555555555555555555555555555555555555555555555555555555555555555555555555555555555555555555555555555555555555555555555555555555555555555555555555555555555555555555555555555555555555555555555555555555555555555555555555555555555555555555
310
5555555555555555E2E2E25555555555555555555555555555555555555555555555555555555555555555555555555555555555555555555555555555555555555555555555555555555555555555555555555555555555555555555555555555555555555555555555555555555555555555555555555555555555555555
310
555555555555555555555555555555555555555555555555555555555555555555555555555555555555555555555555555555555555555555555555E2E2E2E2555555555555555555555555555555555555555555555555555555555555555555555555555555555555555555555555555555555555555555555555555555
310
5555555555555555555555555555555555555555555555555555555555555555555555555555555555555555555555555555555555555555555555555555555555555555555555555555555555555555555555555555555555555555555555555555555555555555555555555555555555E2E2E2E255555555555555555555
310
55555555555555555555555555555555555555555555555555555555555555555555555555555555555555555555555555555555555555555555555555555555555555555555555555555555555555555555555555555555555555555555555555555555555555555555555555555555555555555555555555555555555555
310
555555555555555555555555555555555555555555555555555555555555555555555555555555E2E2E2E2555555555555555555555555555555555555555555555555555555555555555555555555555555555555555555555555555555555555555555555555555555555555555555555555555555555555555555555555
310
5555555555555555555555555555555555555555555555555555555555555555555555555555555555555555555555555555555555555555555555555555555555555555555555555555555555555555555555555555555555555555E2E2E2E255555555555555555555555555555555555555555555555555555555555555
310
55555555555555555555555555555555555555555555555555555555555555555555555555555555555555555555555555555555555555555555555555555555555555555555555555555555555555555555555555555555555555555555555555555555555555555555555555555555555555555555555555555555555555
310
555555555555555555555555555555555555E2E2E2E2555555555555555555555555555555555555555555555555555555555555555555555555555555555555555555555555555555555555555555555555555555555555555555555555555555555555555555555555555555555555555555555555555555555555555555
310
5555555555555555555555555555555555555555555555555555555555555555555555555555555555555555555555555555555555555555555555555555555555555555555555E2E2E2E255555555555555555555555555555555555555555555555555555555555555555555555555555555555555555555555555555555
310
55555555555555555555555555555555555555555555555555555555555555555555555555555555555555555555555555555555555555555555555555555555555555555555555555555555555555555555555555555555555555555555555555555555555555555555555555555555555555555555555555555555E2E2E2
310
E2555555555555555555555555555555555555555555555555555555555555555555555555555555555555555555555555555555555555555555555555555555555555555555555555555555555555555555555555555555555555555555555555555555555555555555555555555555555555555555555555555555555555
310
5555555555555555555555555555555555555555555555555555555555555555555555555555555555555555555555555555E2E2E2E255555555555555555555555555555555555555555555555555555555555555555555555555555555555555555555555555555555555555555555555555555555555555555555555555
310
55555555555555555555555555555555555555555555555555555555555555555555555555555555555555555555555555555555555555555555555555555555555555555555555555555555555555555555555555555555555555555555555555555555555555E2E2E2E25555555555555555555555555555555555555555
310
55555555555555555555555555555555555555555555555555555555555555555555555555555555555555555555555555555555555555555555555555555555555555555555555555555555555555555555555555555555555555555555555555555555555555555555555555555555555555555555555555555555555555
310
5555555555555555555555555555555555555555555555555555555555E2E2E2E255555555555555555555555555555555555555555555555555555555555555555555555555555555555555555555555555555555555555555555555555555555555555555555555555555555555555555555555555555555555555555555
310
55555555555555555555555555555555555555555555555555555555555555555555555555555555555555555555555555555555555555555555555555555555555555555555555555555555555555555555E2E2E2E25555555555555555555555555555555555555555555555555555555555555555555555555555555555
310
55555555555555555555555555555555555555555555555555555555555555555555555555555555555555555555555555555555555555555555555555555555555555555555555555555555555555555555555555555555555555555555555555555555555555555555555555555555555555555555555555555555555555
310
5555555555555555E2E2E2E255555555555555555555555555555555555555555555555555555555555555555555555555555555555555555555555555555555555555555555555555555555555555555555555555555555555555555555555555555555555555555555555555555555555555555555555555555555555555
310
55555555555555555555555555555555555555555555555555555555555555555555555555555555555555555555555555555555555555555555555555E2E2E2E25555555555555555555555555555555555555555555555555555555555555555555555555555555555555555555555555555555555555555555555555555
310
555555555555555555555555555555555555555555555555555555555555555555555555555555555555555555555555555555555555555555555555555555555555555555555555555555555555555555555555555555555555555555555555555555555555555555555555555555555555E2E2E2E2555555555555555555
310
55555555555555555555555555555555555555555555555555555555555555555555555555555555555555555555555555555555555555555555555555555555555555555555555555555555555555555555555555555555555555555555555555555555555555555555555555555555555555555555555555555555555555
310
55555555555555555555555555555555555555555555555555555555555555555555555555555555E2E2E2555555555555555555555555555555555555555555555555555555555555555555555555555555555555555555555555555555555555555555555555555555555555555555555555555555555555555555555555
310
55555555555555555555555555555555555555555555555555555555555555555555555555555555555555555555555555555555555555555555555555555555555555555555555555555555555555555555555555555555555555555555E2E255555555555555555555555555555555555555555555555555555555555555
310
55555555555555555555555555555555555555555555555555555555555555555555555555555555555555555555555555555555555555555555555555555555555555555555555555555555555555555555555555555555555555555555555555555555555555555555555555555555555555555555555555555555555555
310
5555555555555555555555555555555555555555E2E2555555555555555555555555555555555555555555555555555555555555555555555555555555555555555555555555555555555555555555555555555555555555555555555555555555555555555555555555555555555555555555555555555555555555555555
310
55555555555555555555555555555555555555555555555555555555555555555555555555555555555555555555555555555555555555555555555555555555555555555555555555E2E255555555555555555555555555555555555555555555555555555555555555555555555555555555555555555555555555555555
310
555555555555555555555555555555555555555555555555555555555555555555555555555555555555555555555555555555555555555555555555555555555555555555555555555555555555555555555555555555555555555555555555555555555555555555555555555555555555555555555555555555555555E2
310
E2555555555555555555555555555555555555555555555555555555555555555555555555555555555555555555555555555555555555555555555555555555555555555555555555555555555555555555555555555555555555555555555555555555555555555555555555555555555555555555555555555555555555
310
55555555555555555555555555555555555555555555555555555555555555555555555555555555555555555555555555555555E2E255555555555555555555555555555555555555555555555555555555555555555555555555555555555555555555555555555555555555555555555555555555555555555555555555
310
555555555555555555555555555555555555555555555555555555555555555555555555555555555555555555555555555555555555555555555555555555555555555555555555555555555555555555555555555555555555555555555555555555555555555555E2E25555555555555555555555555555555555555555
310
55555555555555555555555555555555555555555555555555555555555555555555555555555555555555555555555555555555555555555555555555555555555555555555555555555555555555555555555555555555555555555555555555555555555555555555555555555555555555555555555555555555555555
310
55555555555555555555555555555555555555555555555555555555555555E2E255555555555555555555555555555555555555555555555555555555555555555555555555555555555555555555555555555555555555555555555555555555555555555555555555555555555555555555555555555555555555555555
310
555555555555555555555555555555555555555555555555555555555555555555555555555555555555555555555555555555555555555555555555555555555555555555555555555555555555555555555555E2E2E255555555555555555555555555555555555555555555555555555555555555555555555555555555
310
55555555555555555555555555555555555555555555555555555555555555555555555555555555555555555555555555555555555555555555555555555555555555555555555555555555555555555555555555555555555555555555555555555555555555555555555555555555555555555555555555555555555555
310
555555555555555555E2E2E2E2555555555555555555555555555555555555555555555555555555555555555555555555555555555555555555555555555555555555555555555555555555555555555555555555555555555555555555555555555555555555555555555555555555555555555555555555555555555555
310
5555555555555555555555555555555555555555555555555555555555555555555555555555555555555555555555555555555555555555555555555555E2E2E2E255555555555555555555555555555555555555555555555555555555555555555555555555555555555555555555555555555555555555555555555555
310
55555555555555555555555555555555555555555555555555555555555555555555555555555555555555555555555555555555555555555555555555555555555555555555555555555555555555555555555555555555555555555555555555555555555555555555555555555555555555E2E2E2E25555555555555555
310
55555555555555555555555555555555555555555555555555555555555555555555555555555555555555555555555555555555555555555555555555555555555555555555555555555555555555555555555555555555555555555555555555555555555555555555555555555555555555555555555555555555555555
310
5555555555555555555555555555555555555555555555555555555555555555555555555555555555E2E2E2E255555555555555555555555555555555555555555555555555555555555555555555555555555555555555555555555555555555555555555555555555555555555555555555555555555555555555555555
310
55555555555555555555555555555555555555555555555555555555555555555555555555555555555555555555555555555555555555555555555555555555555555555555555555555555555555555555555555555555555555555555E2E2E2E25555555555555555555555555555555555555555555555555555555555
310
55555555555555555555555555555555555555555555555555555555555555555555555555555555555555555555555555555555555555555555555555555555555555555555555555555555555555555555555555555555555555555555555555555555555555555555555555555555555555555555555555555555555555
310
5555555555555555555555555555555555555555E2E2E2E255555555555555555555555555555555555555555555555555555555555555555555555555555555555555555555555555555555555555555555555555555555555555555555555555555555555555555555555555555555555555555555555555555555555555
310
55555555555555555555555555555555555555555555555555555555555555555555555555555555555555555555555555555555555555555555555555555555555555555555555555E2E2E2E25555555555555555555555555555555555555555555555555555555555555555555555555555555555555555555555555555
310
555555555555555555555555555555555555555555555555555555555555555555555555555555555555555555555555555555555555555555555555555555555555555555555555555555555555555555555555555555555555555555555555555555555555555555555555555555555555555555555555555555555555E2
310
E2E2E255555555555555555555555555555555555555555555555555555555555555555555555555555555555555555555555555555555555555555555555555555555555555555555555555555555555555555555555555555555555555555555555555555555555555555555555555555555555555555555555555555555
310
55555555555555555555555555555555555555555555555555555555555555555555555555555555555555555555555555555555E2E2E2E25555555555555555555555555555555555555555555555555555555555555555555555555555555555555555555555555555555555555555555555555555555555555555555555
310
555555555555555555555555555555555555555555555555555555555555555555555555555555555555555555555555555555555555555555555555555555555555555555555555555555555555555555555555555555555555555555555555555555555555555555E2E2E2E2555555555555555555555555555555555555
310
55555555555555555555555555555555555555555555555555555555555555555555555555555555555555555555555555555555555555555555555555555555555555555555555555555555555555555555555555555555555555555555555555555555555555555555555555555555555555555555555555555555555555
310
55555555555555555555555555555555555555555555555555555555555555E2E2E2E25555555555555555555555555555555555555555555555555555555555555555555555555555555555555555555555555555555555555555555555555555555555555555555555555555555555555555555555555555555555555555
310
555555555555555555555555555555555555555555555555555555555555555555555555555555555555555555555555555555555555555555555555555555555555555555555555555555555555555555555555E2E2E2E2555555555555555555555555555555555555555555555555555555555555555555555555555555
310
55555555555555555555555555555555555555555555555555555555555555555555555555555555555555555555555555555555555555555555555555555555555555555555555555555555555555555555555555555555555555555555555555555555555555555555555555555555555555555555555555555555555555
310
55555555555555555555E2E2E2E25555555555555555555555555555555555555555555555555555555555555555555555555555555555555555555555555555555555555555555555555555555555555555555555555555555555555555555555555555555555555555555555555555555555555555555555555555555555
310
555555555555555555555555555555555555555555555555555555555555555555555555555555555555555555555555555555555555555555555555555555E2E2E2E2555555555555555555555555555555555555555555555555555555555555555555555555555555555555555555555555555555555555555555555555
310
5555555555555555555555555555555555555555555555555555555555555555555555555555555555555555555555555555555555555555555555555555555555555555555555555555555555555555555555555555555555555555555555555555555555555555555555555555555555555555E2E2E25555555555555555
310
55555555555555555555555555555555555555555555555555555555555555555555555555555555555555555555555555555555555555555555555555555555555555555555555555555555555555555555555555555555555555555555555555555555555555555555555555555555555555555555555555555555555555
310
55555555555555555555555555555555555555555555555555555555555555555555555555555555555555E2E255555555555555555555555555555555555555555555555555555555555555555555555555555555555555555555555555555555555555555555555555555555555555555555555555555555555555555555
310
555555555555555555555555555555555555555555555555555555555555555555555555555555555555555555555555555555555555555555555555555555555555555555555555555555555555555555555555555555555555555555555555E2E25555555555555555555555555555555555555555555555555555555555
310
55555555555555555555555555555555555555555555555555555555555555555555555555555555555555555555555555555555555555555555555555555555555555555555555555555555555555555555555555555555555555555555555555555555555555555555555555555555555555555555555555555555555555
310
55555555555555555555555555555555555555555555E2E255555555555555555555555555555555555555555555555555555555555555555555555555555555555555555555555555555555555555555555555555555555555555555555555555555555555555555555555555555555555555555555555555555555555555
310
555555555555555555555555555555555555555555555555555555555555555555555555555555555555555555555555555555555555555555555555555555555555555555555555555555E2E25555555555555555555555555555555555555555555555555555555555555555555555555555555555555555555555555555
310
55555555555555555555555555555555555555555555555555555555555555555555555555555555555555555555555555555555555555555555555555555555555555555555555555555555555555555555555555555555555555555555555555555555555555555555555555555555555555555555555555555555555555
310
55E2E255555555555555555555555555555555555555555555555555555555555555555555555555555555555555555555555555555555555555555555555555555555555555555555555555555555555555555555555555555555555555555555555555555555555555555555555555555555555555555555555555555555
310
555555555555555555555555555555555555555555555555555555555555555555555555555555555555555555555555555555555555E2E25555555555555555555555555555555555555555555555555555555555555555555555555555555555555555555555555555555555555555555555555555555555555555555555
310
5555555555555555555555555555555555555555555555555555555555555555555555555555555555555555555555555555555555555555555555555555555555555555555555555555555555555555555555555555555555555555555555555555555555555555555555E2E2555555555555555555555555555555555555
310
55555555555555555555555555555555555555555555555555555555555555555555555555555555555555555555555555555555555555555555555555555555555555555555555555555555555555555555555555555555555555555555555555555555555555555555555555555555555555555555555555555555555555
310
555555555555555555555555555555555555555555555555555555555555555555E2E2E255555555555555555555555555555555555555555555555555555555555555555555555555555555555555555555555555555555555555555555555555555555555555555555555555555555555555555555555555555555555555
310
55555555555555555555555555555555555555555555555555555555555555555555555555555555555555555555555555555555555555555555555555555555555555555555555555555555555555555555555555E2E2E2E25555555555555555555555555555555555555555555555555555555555555555555555555555
310
55555555555555555555555555555555555555555555555555555555555555555555555555555555555555555555555555555555555555555555555555555555555555555555555555555555555555555555555555555555555555555555555555555555555555555555555555555555555555555555555555555555555555
310
5555555555555555555555E2E2E2E255555555555555555555555555555555555555555555555555555555555555555555555555555555555555555555555555555555555555555555555555555555555555555555555555555555555555555555555555555555555555555555555555555555555555555555555555555555
310
55555555555555555555555555555555555555555555555555555555555555555555555555555555555555555555555555555555555555555555555555555555E2E2E2E25555555555555555555555555555555555555555555555555555555555555555555555555555555555555555555555555555555555555555555555
310
555555555555555555555555555555555555555555555555555555555555555555555555555555555555555555555555555555555555555555555555555555555555555555555555555555555555555555555555555555555555555555555555555555555555555555555555555555555555555555E2E2E2E2555555555555
310
55555555555555555555555555555555555555555555555555555555555555555555555555555555555555555555555555555555555555555555555555555555555555555555555555555555555555555555555555555555555555555555555555555555555555555555555555555555555555555555555555555555555555
310
55555555555555555555555555555555555555555555555555555555555555555555555555555555555555E2E2E2E25555555555555555555555555555555555555555555555555555555555555555555555555555555555555555555555555555555555555555555555555555555555555555555555555555555555555555
310
555555555555555555555555555555555555555555555555555555555555555555555555555555555555555555555555555555555555555555555555555555555555555555555555555555555555555555555555555555555555555555555555E2E2E2E2555555555555555555555555555555555555555555555555555555
310
55555555555555555555555555555555555555555555555555555555555555555555555555555555555555555555555555555555555555555555555555555555555555555555555555555555555555555555555555555555555555555555555555555555555555555555555555555555555555555555555555555555555555
310
55555555555555555555555555555555555555555555E2E2E2E25555555555555555555555555555555555555555555555555555555555555555555555555555555555555555555555555555555555555555555555555555555555555555555555555555555555555555555555555555555555555555555555555555555555
310
555555555555555555555555555555555555555555555555555555555555555555555555555555555555555555555555555555555555555555555555555555555555555555555555555555E2E2E2E2555555555555555555555555555555555555555555555555555555555555555555555555555555555555555555555555
310
55555555555555555555555555555555555555555555555555555555555555555555555555555555555555555555555555555555555555555555555555555555555555555555555555555555555555555555555555555555555555555555555555555555555555555555555555555555555555555555555555555555555555
310
55E2E2E2E25555555555555555555555555555555555555555555555555555555555555555555555555555555555555555555555555555555555555555555555555555555555555555555555555555555555555555555555555555555555555555555555555555555555555555555555555555555555555555555555555555
310
555555555555555555555555555555555555555555555555555555555555555555555555555555555555555555555555555555555555E2E2E2E2555555555555555555555555555555555555555555555555555555555555555555555555555555555555555555555555555555555555555555555555555555555555555555
310
5555555555555555555555555555555555555555555555555555555555555555555555555555555555555555555555555555555555555555555555555555555555555555555555555555555555555555555555555555555555555555555555555555555555555555555555E2E2E2E255555555555555555555555555555555
310
55555555555555555555555555555555555555555555555555555555555555555555555555555555555555555555555555555555555555555555555555555555555555555555555555555555555555555555555555555555555555555555555555555555555555555555555555555555555555555555555555555555555555
310
555555555555555555555555555555555555555555555555555555555555555555E2E2E2E2555555555555555555555555555555555555555555555555555555555555555555555555555555555555555555555555555555555555555555555555555555555555555555555555555555555555555555555555555555555555
310
5555555555555555555555555555555555555555555555555555555555555555555555555555555555555555555555555555555555555555555555555555555555555555555555555555555555555555555555555555E2E2E2E255555555555555555555555555555555555555555555555555555555555555555555555555
310
55555555555555555555555555555555555555555555555555555555555555555555555555555555555555555555555555555555555555555555555555555555555555555555555555555555555555555555555555555555555555555555555555555555555555555555555555555555555555555555555555555555555555
310
555555555555555555555555E2E2E2E2555555555555555555555555555555555555555555555555555555555555555555555555555555555555555555555555555555555555555555555555555555555555555555555555555555555555555555555555555555555555555555555555555555555555555555555555555555
310
5555555555555555555555555555555555555555555555555555555555555555555555555555555555555555555555555555555555555555555555555555555555E2E2E25555555555555555555555555555555555555555555555555555555555555555555555555555555555555555555555555555555555555555555555
310
5555555555555555555555555555555555555555555555555555555555555555555555555555555555555555555555555555555555555555555555555555555555555555555555555555555555555555555555555555555555555555555555555555555555555555555555555555555555555555555555E2E2555555555555
310
55555555555555555555555555555555555555555555555555555555555555555555555555555555555555555555555555555555555555555555555555555555555555555555555555555555555555555555555555555555555555555555555555555555555555555555555555555555555555555555555555555555555555
310
555555555555555555555555555555555555555555555555555555555555555555555555555555555555555555E2E25555555555555555555555555555555555555555555555555555555555555555555555555555555555555555555555555555555555555555555555555555555555555555555555555555555555555555
310
5555555555555555555555555555555555555555555555555555555555555555555555555555555555555555555555555555555555555555555555555555555555555555555555555555555555555555555555555555555555555555555555555555E2E2555555555555555555555555555555555555555555555555555555
310
55555555555555555555555555555555555555555555555555555555555555555555555555555555555555555555555555555555555555555555555555555555555555555555555555555555555555555555555555555555555555555555555555555555555555555555555555555555555555555555555555555555555555
310
555555555555555555555555555555555555555555555555E2E25555555555555555555555555555555555555555555555555555555555555555555555555555555555555555555555555555555555555555555555555555555555555555555555555555555555555555555555555555555555555555555555555555555555
310
5555555555555555555555555555555555555555555555555555555555555555555555555555555555555555555555555555555555555555555555555555555555555555555555555555555555E2E2555555555555555555555555555555555555555555555555555555555555555555555555555555555555555555555555
310
55555555555555555555555555555555555555555555555555555555555555555555555555555555555555555555555555555555555555555555555555555555555555555555555555555555555555555555555555555555555555555555555555555555555555555555555555555555555555555555555555555555555555
310
555555E2E25555555555555555555555555555555555555555555555555555555555555555555555555555555555555555555555555555555555555555555555555555555555555555555555555555555555555555555555555555555555555555555555555555555555555555555555555555555555555555555555555555
310
5555555555555555555555555555555555555555555555555555555555555555555555555555555555555555555555555555555555555555E2E2555555555555555555555555555555555555555555555555555555555555555555555555555555555555555555555555555555555555555555555555555555555555555555
310
55555555555555555555555555555555555555555555555555555555555555555555555555555555555555555555555555555555555555555555555555555555555555555555555555555555555555555555555555555555555555555555555555555555555555555555555555E2E2E2555555555555555555555555555555
310
55555555555555555555555555555555555555555555555555555555555555555555555555555555555555555555555555555555555555555555555555555555555555555555555555555555555555555555555555555555555555555555555555555555555555555555555555555555555555555555555555555555555555
310
55555555555555555555555555555555555555555555555555555555555555555555E2E2E2E25555555555555555555555555555555555555555555555555555555555555555555555555555555555555555555555555555555555555555555555555555555555555555555555555555555555555555555555555555555555
310
555555555555555555555555555555555555555555555555555555555555555555555555555555555555555555555555555555555555555555555555555555555555555555555555555555555555555555555555555555E2E2E2E2555555555555555555555555555555555555555555555555555555555555555555555555
310
55555555555555555555555555555555555555555555555555555555555555555555555555555555555555555555555555555555555555555555555555555555555555555555555555555555555555555555555555555555555555555555555555555555555555555555555555555555555555555555555555555555555555
310
55555555555555555555555555E2E2E2E25555555555555555555555555555555555555555555555555555555555555555555555555555555555555555555555555555555555555555555555555555555555555555555555555555555555555555555555555555555555555555555555555555555555555555555555555555
310
555555555555555555555555555555555555555555555555555555555555555555555555555555555555555555555555555555555555555555555555555555555555E2E2E2E2555555555555555555555555555555555555555555555555555555555555555555555555555555555555555555555555555555555555555555
310
5555555555555555555555555555555555555555555555555555555555555555555555555555555555555555555555555555555555555555555555555555555555555555555555555555555555555555555555555555555555555555555555555555555555555555555555555555555555555555555555E2E2E2E255555555
310
55555555555555555555555555555555555555555555555555555555555555555555555555555555555555555555555555555555555555555555555555555555555555555555555555555555555555555555555555555555555555555555555555555555555555555555555555555555555555555555555555555555555555
310
555555555555555555555555555555555555555555555555555555555555555555555555555555555555555555E2E2E2E2555555555555555555555555555555555555555555555555555555555555555555555555555555555555555555555555555555555555555555555555555555555555555555555555555555555555
310
5555555555555555555555555555555555555555555555555555555555555555555555555555555555555555555555555555555555555555555555555555555555555555555555555555555555555555555555555555555555555555555555555555E2E2E2E2E2E2E2E2E2E2E2E2E2E2E2E2E2E2E2E2E2E2E2E2E2E2E2E2E2
310
E2E2E2E2E2E2E2E2E2E2E2E2E2E2E2E2E2E2E2E2E2E2E2E2E2E2E2E2E2E2E2E2E2E2E2E2E2E2E2E2E2E2E2E2E2E2E2E2E2E2E2E2E2E2E2E2E2E2E2E2E2E2E2E2E2E2E2E2E2E2E2E2E2E2E2E2E2E2E2E2E2E2E2E2E2E2E2E2E2E2E2E2E2E2E2E2E2E2E2E2E2E2E2E2E2E2E2E2E2E2E2E2E2E2E2E2E2E2E2E2E2E2E2E2E2E2E2
310
E2E2E2E2E2E2E2E2E2E2E2E2E2E2E2E2E2E2E2E2E2E2E2E2E2E2
  0
XRECORD
  5
299F5
102
{ACAD_REACTORS
330
299F4
102
}
330
299F4
100
AcDbXrecord
280
     1
102
SHADEPLOT
 70
     0
102
SHADEPLOTRESLEVEL
 70
     2
102
SHADEPLOTCUSTOMDPI
 70
   300
  0
XRECORD
  5
294C5
102
{ACAD_REACTORS
330
294C4
102
}
330
294C4
100
AcDbXrecord
280
     1
102
MATERIAL
148
0.0
149
0.0
149
0.0
 93
        0
 94
      127
282
     0
 72
     1
 77
     1
171
     1
175
     1
179
     1
273
     0
  0
XRECORD
  5
294C3
102
{ACAD_REACTORS
330
294C2
102
}
330
294C2
100
AcDbXrecord
280
     1
102
MATERIAL
148
0.0
149
0.0
149
0.0
 93
        0
 94
      127
282
     0
 72
     1
 77
     1
171
     1
175
     1
179
     1
273
     0
  0
XRECORD
  5
294C7
102
{ACAD_REACTORS
330
294C6
102
}
330
294C6
100
AcDbXrecord
280
     1
102
MATERIAL
148
0.0
149
0.0
149
0.0
 93
        0
 94
      127
282
     0
 72
     1
 77
     1
171
     1
175
     1
179
     1
273
     0
  0
CELLSTYLEMAP
  5
299F0
102
{ACAD_REACTORS
330
29598
102
}
330
29598
100
AcDbCellStyleMap
 90
        3
300
CELLSTYLE
  1
TABLEFORMAT_BEGIN
 90
        5
170
     1
 91
        0
 92
    32768
 62
   257
 93
        1
300
CONTENTFORMAT
  1
CONTENTFORMAT_BEGIN
 90
        0
 91
        0
 92
        4
 93
        0
300

 40
0.0
140
1.0
 94
        5
 62
     0
340
11
144
6.0
309
CONTENTFORMAT_END
171
     1
301
MARGIN
  1
CELLMARGIN_BEGIN
 40
1.5
 40
1.5
 40
1.5
 40
1.5
 40
0.18
 40
0.18
309
CELLMARGIN_END
 94
        6
 95
        1
302
GRIDFORMAT
  1
GRIDFORMAT_BEGIN
 90
        0
 91
        1
 62
     0
 92
       -2
340
0
 93
        0
 40
0.045
309
GRIDFORMAT_END
 95
        2
302
GRIDFORMAT
  1
GRIDFORMAT_BEGIN
 90
        0
 91
        1
 62
     0
 92
       -2
340
0
 93
        0
 40
0.045
309
GRIDFORMAT_END
 95
        4
302
GRIDFORMAT
  1
GRIDFORMAT_BEGIN
 90
        0
 91
        1
 62
     0
 92
       -2
340
0
 93
        0
 40
0.045
309
GRIDFORMAT_END
 95
        8
302
GRIDFORMAT
  1
GRIDFORMAT_BEGIN
 90
        0
 91
        1
 62
     0
 92
       -2
340
0
 93
        0
 40
0.045
309
GRIDFORMAT_END
 95
       16
302
GRIDFORMAT
  1
GRIDFORMAT_BEGIN
 90
        0
 91
        1
 62
     0
 92
       -2
340
0
 93
        0
 40
0.045
309
GRIDFORMAT_END
 95
       32
302
GRIDFORMAT
  1
GRIDFORMAT_BEGIN
 90
        0
 91
        1
 62
     0
 92
       -2
340
0
 93
        0
 40
0.045
309
GRIDFORMAT_END
309
TABLEFORMAT_END
  1
CELLSTYLE_BEGIN
 90
        1
 91
        1
300
_TITLE
309
CELLSTYLE_END
300
CELLSTYLE
  1
TABLEFORMAT_BEGIN
 90
        5
170
     1
 91
        0
 92
        0
 62
   257
 93
        1
300
CONTENTFORMAT
  1
CONTENTFORMAT_BEGIN
 90
        0
 91
        0
 92
        4
 93
        0
300

 40
0.0
140
1.0
 94
        5
 62
     0
340
11
144
4.5
309
CONTENTFORMAT_END
171
     1
301
MARGIN
  1
CELLMARGIN_BEGIN
 40
1.5
 40
1.5
 40
1.5
 40
1.5
 40
0.18
 40
0.18
309
CELLMARGIN_END
 94
        6
 95
        1
302
GRIDFORMAT
  1
GRIDFORMAT_BEGIN
 90
        0
 91
        1
 62
     0
 92
       -2
340
0
 93
        0
 40
0.045
309
GRIDFORMAT_END
 95
        2
302
GRIDFORMAT
  1
GRIDFORMAT_BEGIN
 90
        0
 91
        1
 62
     0
 92
       -2
340
0
 93
        0
 40
0.045
309
GRIDFORMAT_END
 95
        4
302
GRIDFORMAT
  1
GRIDFORMAT_BEGIN
 90
        0
 91
        1
 62
     0
 92
       -2
340
0
 93
        0
 40
0.045
309
GRIDFORMAT_END
 95
        8
302
GRIDFORMAT
  1
GRIDFORMAT_BEGIN
 90
        0
 91
        1
 62
     0
 92
       -2
340
0
 93
        0
 40
0.045
309
GRIDFORMAT_END
 95
       16
302
GRIDFORMAT
  1
GRIDFORMAT_BEGIN
 90
        0
 91
        1
 62
     0
 92
       -2
340
0
 93
        0
 40
0.045
309
GRIDFORMAT_END
 95
       32
302
GRIDFORMAT
  1
GRIDFORMAT_BEGIN
 90
        0
 91
        1
 62
     0
 92
       -2
340
0
 93
        0
 40
0.045
309
GRIDFORMAT_END
309
TABLEFORMAT_END
  1
CELLSTYLE_BEGIN
 90
        2
 91
        1
300
_HEADER
309
CELLSTYLE_END
300
CELLSTYLE
  1
TABLEFORMAT_BEGIN
 90
        5
170
     1
 91
        0
 92
        0
 62
   257
 93
        1
300
CONTENTFORMAT
  1
CONTENTFORMAT_BEGIN
 90
        0
 91
        0
 92
        4
 93
        0
300

 40
0.0
140
1.0
 94
        2
 62
     0
340
11
144
4.5
309
CONTENTFORMAT_END
171
     1
301
MARGIN
  1
CELLMARGIN_BEGIN
 40
1.5
 40
1.5
 40
1.5
 40
1.5
 40
0.18
 40
0.18
309
CELLMARGIN_END
 94
        6
 95
        1
302
GRIDFORMAT
  1
GRIDFORMAT_BEGIN
 90
        0
 91
        1
 62
     0
 92
       -2
340
0
 93
        0
 40
0.045
309
GRIDFORMAT_END
 95
        2
302
GRIDFORMAT
  1
GRIDFORMAT_BEGIN
 90
        0
 91
        1
 62
     0
 92
       -2
340
0
 93
        0
 40
0.045
309
GRIDFORMAT_END
 95
        4
302
GRIDFORMAT
  1
GRIDFORMAT_BEGIN
 90
        0
 91
        1
 62
     0
 92
       -2
340
0
 93
        0
 40
0.045
309
GRIDFORMAT_END
 95
        8
302
GRIDFORMAT
  1
GRIDFORMAT_BEGIN
 90
        0
 91
        1
 62
     0
 92
       -2
340
0
 93
        0
 40
0.045
309
GRIDFORMAT_END
 95
       16
302
GRIDFORMAT
  1
GRIDFORMAT_BEGIN
 90
        0
 91
        1
 62
     0
 92
       -2
340
0
 93
        0
 40
0.045
309
GRIDFORMAT_END
 95
       32
302
GRIDFORMAT
  1
GRIDFORMAT_BEGIN
 90
        0
 91
        1
 62
     0
 92
       -2
340
0
 93
        0
 40
0.045
309
GRIDFORMAT_END
309
TABLEFORMAT_END
  1
CELLSTYLE_BEGIN
 90
        3
 91
        2
300
_DATA
309
CELLSTYLE_END
  0
XRECORD
  5
299F3
102
{ACAD_REACTORS
330
29598
102
}
330
29598
100
AcDbXrecord
280
     1
102
ACAD_ROUNDTRIP_PRE2007_TABLESTYLE
 90
        4
 91
        0
  1

 92
        4
 93
        0
  2

 94
        4
 95
        0
  3

  0
XRECORD
  5
29A01
102
{ACAD_REACTORS
330
29A00
102
}
330
29A00
100
AcDbXrecord
280
     1
102
RTVSPropertyOp0
 70
     1
102
RTVSPropertyOp1
 70
     1
102
RTVSPropertyOp2
 70
     1
102
RTVSPropertyOp3
 70
     1
102
RTVSPropertyOp4
 70
     1
102
RTVSPropertyOp5
 70
     1
102
RTVSPropertyOp6
 70
     1
102
RTVSPropertyOp7
 70
     1
102
RTVSPropertyOp8
 70
     1
102
RTVSPropertyOp9
 70
     1
102
RTVSPropertyOp10
 70
     1
102
RTVSPropertyOp11
 70
     1
102
RTVSPropertyOp12
 70
     1
102
RTVSPropertyOp13
 70
     1
102
RTVSPropertyOp14
 70
     1
102
RTVSPropertyOp15
 70
     1
102
RTVSPropertyOp16
 70
     1
102
RTVSPropertyOp17
 70
     1
102
RTVSPropertyOp18
 70
     1
102
RTVSPropertyOp19
 70
     1
102
RTVSPropertyOp20
 70
     1
102
RTVSPropertyOp21
 70
     1
102
RTVSPropertyOp22
 70
     1
102
RTVSPropertyOp23
 70
     1
102
RTVSPropertyOp24
 70
     1
102
RTVSPropertyOp25
 70
     1
102
RTVSPropertyOp26
 70
     1
102
RTVSPropertyOp27
 70
     1
102
RTVSPropertyOp28
 70
     1
102
RTVSPropertyOp29
 70
     1
102
RTVSPropertyOp30
 70
     1
102
RTVSPropertyOp31
 70
     1
102
RTVSPropertyOp32
 70
     1
  0
XRECORD
  5
29A16
102
{ACAD_REACTORS
330
29A15
102
}
330
29A15
100
AcDbXrecord
280
     1
102
RTVSPropertyOp0
 70
     1
102
RTVSPropertyOp1
 70
     1
102
RTVSPropertyOp2
 70
     1
102
RTVSPropertyOp3
 70
     1
102
RTVSPropertyOp4
 70
     1
102
RTVSPropertyOp5
 70
     1
102
RTVSPropertyOp6
 70
     1
102
RTVSPropertyOp7
 70
     1
102
RTVSPropertyOp8
 70
     1
102
RTVSPropertyOp9
 70
     1
102
RTVSPropertyOp10
 70
     1
102
RTVSPropertyOp11
 70
     1
102
RTVSPropertyOp12
 70
     1
102
RTVSPropertyOp13
 70
     1
102
RTVSPropertyOp14
 70
     1
102
RTVSPropertyOp15
 70
     1
102
RTVSPropertyOp16
 70
     1
102
RTVSPropertyOp17
 70
     1
102
RTVSPropertyOp18
 70
     1
102
RTVSPropertyOp19
 70
     1
102
RTVSPropertyOp20
 70
     1
102
RTVSPropertyOp21
 70
     1
102
RTVSPropertyOp22
 70
     1
102
RTVSPropertyOp23
 70
     1
102
RTVSPropertyOp24
 70
     1
102
RTVSPropertyOp25
 70
     1
102
RTVSPropertyOp26
 70
     1
102
RTVSPropertyOp27
 70
     1
102
RTVSPropertyOp28
 70
     1
102
RTVSPropertyOp29
 70
     1
102
RTVSPropertyOp30
 70
     1
102
RTVSPropertyOp31
 70
     1
102
RTVSPropertyOp32
 70
     1
  0
XRECORD
  5
29A14
102
{ACAD_REACTORS
330
29A13
102
}
330
29A13
100
AcDbXrecord
280
     1
102
RTVSPropertyOp0
 70
     1
102
RTVSPropertyOp1
 70
     1
102
RTVSPropertyOp2
 70
     1
102
RTVSPropertyOp3
 70
     1
102
RTVSPropertyOp4
 70
     1
102
RTVSPropertyOp5
 70
     1
102
RTVSPropertyOp6
 70
     1
102
RTVSPropertyOp7
 70
     1
102
RTVSPropertyOp8
 70
     1
102
RTVSPropertyOp9
 70
     1
102
RTVSPropertyOp10
 70
     1
102
RTVSPropertyOp11
 70
     1
102
RTVSPropertyOp12
 70
     1
102
RTVSPropertyOp13
 70
     1
102
RTVSPropertyOp14
 70
     1
102
RTVSPropertyOp15
 70
     1
102
RTVSPropertyOp16
 70
     1
102
RTVSPropertyOp17
 70
     1
102
RTVSPropertyOp18
 70
     1
102
RTVSPropertyOp19
 70
     1
102
RTVSPropertyOp20
 70
     1
102
RTVSPropertyOp21
 70
     1
102
RTVSPropertyOp22
 70
     1
102
RTVSPropertyOp23
 70
     1
102
RTVSPropertyOp24
 70
     1
102
RTVSPropertyOp25
 70
     1
102
RTVSPropertyOp26
 70
     1
102
RTVSPropertyOp27
 70
     1
102
RTVSPropertyOp28
 70
     1
102
RTVSPropertyOp29
 70
     1
102
RTVSPropertyOp30
 70
     1
102
RTVSPropertyOp31
 70
     1
102
RTVSPropertyOp32
 70
     1
  0
XRECORD
  5
299FF
102
{ACAD_REACTORS
330
299FE
102
}
330
299FE
100
AcDbXrecord
280
     1
102
RTVSPropertyOp0
 70
     1
102
RTVSPropertyOp1
 70
     1
102
RTVSPropertyOp2
 70
     1
102
RTVSPropertyOp3
 70
     1
102
RTVSPropertyOp4
 70
     1
102
RTVSPropertyOp5
 70
     1
102
RTVSPropertyOp6
 70
     1
102
RTVSPropertyOp7
 70
     1
102
RTVSPropertyOp8
 70
     1
102
RTVSPropertyOp9
 70
     1
102
RTVSPropertyOp10
 70
     1
102
RTVSPropertyOp11
 70
     1
102
RTVSPropertyOp12
 70
     1
102
RTVSPropertyOp13
 70
     1
102
RTVSPropertyOp14
 70
     1
102
RTVSPropertyOp15
 70
     1
102
RTVSPropertyOp16
 70
     1
102
RTVSPropertyOp17
 70
     1
102
RTVSPropertyOp18
 70
     1
102
RTVSPropertyOp19
 70
     1
102
RTVSPropertyOp20
 70
     1
102
RTVSPropertyOp21
 70
     1
102
RTVSPropertyOp22
 70
     1
102
RTVSPropertyOp23
 70
     1
102
RTVSPropertyOp24
 70
     1
102
RTVSPropertyOp25
 70
     1
102
RTVSPropertyOp26
 70
     1
102
RTVSPropertyOp27
 70
     1
102
RTVSPropertyOp28
 70
     1
102
RTVSPropertyOp29
 70
     1
102
RTVSPropertyOp30
 70
     1
102
RTVSPropertyOp31
 70
     1
102
RTVSPropertyOp32
 70
     1
  0
XRECORD
  5
29A05
102
{ACAD_REACTORS
330
29A04
102
}
330
29A04
100
AcDbXrecord
280
     1
102
RTVSPropertyOp0
 70
     1
102
RTVSPropertyOp1
 70
     1
102
RTVSPropertyOp2
 70
     1
102
RTVSPropertyOp3
 70
     1
102
RTVSPropertyOp4
 70
     1
102
RTVSPropertyOp5
 70
     1
102
RTVSPropertyOp6
 70
     1
102
RTVSPropertyOp7
 70
     1
102
RTVSPropertyOp8
 70
     1
102
RTVSPropertyOp9
 70
     1
102
RTVSPropertyOp10
 70
     1
102
RTVSPropertyOp11
 70
     1
102
RTVSPropertyOp12
 70
     1
102
RTVSPropertyOp13
 70
     1
102
RTVSPropertyOp14
 70
     1
102
RTVSPropertyOp15
 70
     1
102
RTVSPropertyOp16
 70
     1
102
RTVSPropertyOp17
 70
     1
102
RTVSPropertyOp18
 70
     1
102
RTVSPropertyOp19
 70
     1
102
RTVSPropertyOp20
 70
     1
102
RTVSPropertyOp21
 70
     1
102
RTVSPropertyOp22
 70
     1
102
RTVSPropertyOp23
 70
     1
102
RTVSPropertyOp24
 70
     1
102
RTVSPropertyOp25
 70
     1
102
RTVSPropertyOp26
 70
     1
102
RTVSPropertyOp27
 70
     1
102
RTVSPropertyOp28
 70
     1
102
RTVSPropertyOp29
 70
     1
102
RTVSPropertyOp30
 70
     1
102
RTVSPropertyOp31
 70
     1
102
RTVSPropertyOp32
 70
     1
  0
XRECORD
  5
29A0D
102
{ACAD_REACTORS
330
29A0C
102
}
330
29A0C
100
AcDbXrecord
280
     1
102
RTVSPropertyOp0
 70
     1
102
RTVSPropertyOp1
 70
     1
102
RTVSPropertyOp2
 70
     1
102
RTVSPropertyOp3
 70
     1
102
RTVSPropertyOp4
 70
     1
102
RTVSPropertyOp5
 70
     1
102
RTVSPropertyOp6
 70
     1
102
RTVSPropertyOp7
 70
     1
102
RTVSPropertyOp8
 70
     1
102
RTVSPropertyOp9
 70
     1
102
RTVSPropertyOp10
 70
     1
102
RTVSPropertyOp11
 70
     1
102
RTVSPropertyOp12
 70
     1
102
RTVSPropertyOp13
 70
     1
102
RTVSPropertyOp14
 70
     1
102
RTVSPropertyOp15
 70
     1
102
RTVSPropertyOp16
 70
     1
102
RTVSPropertyOp17
 70
     1
102
RTVSPropertyOp18
 70
     1
102
RTVSPropertyOp19
 70
     1
102
RTVSPropertyOp20
 70
     1
102
RTVSPropertyOp21
 70
     1
102
RTVSPropertyOp22
 70
     1
102
RTVSPropertyOp23
 70
     1
102
RTVSPropertyOp24
 70
     1
102
RTVSPropertyOp25
 70
     1
102
RTVSPropertyOp26
 70
     1
102
RTVSPropertyOp27
 70
     1
102
RTVSPropertyOp28
 70
     1
102
RTVSPropertyOp29
 70
     1
102
RTVSPropertyOp30
 70
     1
102
RTVSPropertyOp31
 70
     1
102
RTVSPropertyOp32
 70
     1
  0
XRECORD
  5
29A18
102
{ACAD_REACTORS
330
29A17
102
}
330
29A17
100
AcDbXrecord
280
     1
102
RTVSPropertyOp0
 70
     1
102
RTVSPropertyOp1
 70
     1
102
RTVSPropertyOp2
 70
     1
102
RTVSPropertyOp3
 70
     1
102
RTVSPropertyOp4
 70
     1
102
RTVSPropertyOp5
 70
     1
102
RTVSPropertyOp6
 70
     1
102
RTVSPropertyOp7
 70
     1
102
RTVSPropertyOp8
 70
     1
102
RTVSPropertyOp9
 70
     1
102
RTVSPropertyOp10
 70
     1
102
RTVSPropertyOp11
 70
     1
102
RTVSPropertyOp12
 70
     1
102
RTVSPropertyOp13
 70
     1
102
RTVSPropertyOp14
 70
     1
102
RTVSPropertyOp15
 70
     1
102
RTVSPropertyOp16
 70
     1
102
RTVSPropertyOp17
 70
     1
102
RTVSPropertyOp18
 70
     1
102
RTVSPropertyOp19
 70
     1
102
RTVSPropertyOp20
 70
     1
102
RTVSPropertyOp21
 70
     1
102
RTVSPropertyOp22
 70
     1
102
RTVSPropertyOp23
 70
     1
102
RTVSPropertyOp24
 70
     1
102
RTVSPropertyOp25
 70
     1
102
RTVSPropertyOp26
 70
     1
102
RTVSPropertyOp27
 70
     1
102
RTVSPropertyOp28
 70
     1
102
RTVSPropertyOp29
 70
     1
102
RTVSPropertyOp30
 70
     1
102
RTVSPropertyOp31
 70
     1
102
RTVSPropertyOp32
 70
     1
  0
XRECORD
  5
29A03
102
{ACAD_REACTORS
330
29A02
102
}
330
29A02
100
AcDbXrecord
280
     1
102
RTVSPropertyOp0
 70
     1
102
RTVSPropertyOp1
 70
     1
102
RTVSPropertyOp2
 70
     1
102
RTVSPropertyOp3
 70
     1
102
RTVSPropertyOp4
 70
     1
102
RTVSPropertyOp5
 70
     1
102
RTVSPropertyOp6
 70
     1
102
RTVSPropertyOp7
 70
     1
102
RTVSPropertyOp8
 70
     1
102
RTVSPropertyOp9
 70
     1
102
RTVSPropertyOp10
 70
     1
102
RTVSPropertyOp11
 70
     1
102
RTVSPropertyOp12
 70
     1
102
RTVSPropertyOp13
 70
     1
102
RTVSPropertyOp14
 70
     1
102
RTVSPropertyOp15
 70
     1
102
RTVSPropertyOp16
 70
     1
102
RTVSPropertyOp17
 70
     1
102
RTVSPropertyOp18
 70
     1
102
RTVSPropertyOp19
 70
     1
102
RTVSPropertyOp20
 70
     1
102
RTVSPropertyOp21
 70
     1
102
RTVSPropertyOp22
 70
     1
102
RTVSPropertyOp23
 70
     1
102
RTVSPropertyOp24
 70
     1
102
RTVSPropertyOp25
 70
     1
102
RTVSPropertyOp26
 70
     1
102
RTVSPropertyOp27
 70
     1
102
RTVSPropertyOp28
 70
     1
102
RTVSPropertyOp29
 70
     1
102
RTVSPropertyOp30
 70
     1
102
RTVSPropertyOp31
 70
     1
102
RTVSPropertyOp32
 70
     1
  0
XRECORD
  5
29A2E
102
{ACAD_REACTORS
330
29A2D
102
}
330
29A2D
100
AcDbXrecord
280
     1
102
RTVSPropertyOp0
 70
     0
102
RTVSPropertyOp1
 70
     0
102
RTVSPropertyOp2
 70
     0
102
RTVSPropertyOp3
 70
     0
102
RTVSPropertyOp4
 70
     0
102
RTVSPropertyOp5
 70
     0
102
RTVSPropertyOp6
 70
     0
102
RTVSPropertyOp7
 70
     0
102
RTVSPropertyOp8
 70
     0
102
RTVSPropertyOp9
 70
     0
102
RTVSPropertyOp10
 70
     0
102
RTVSPropertyOp11
 70
     0
102
RTVSPropertyOp12
 70
     0
102
RTVSPropertyOp13
 70
     0
102
RTVSPropertyOp14
 70
     2
102
RTVSPropertyOp15
 70
     0
102
RTVSPropertyOp16
 70
     0
102
RTVSPropertyOp17
 70
     0
102
RTVSPropertyOp18
 70
     0
102
RTVSPropertyOp19
 70
     0
102
RTVSPropertyOp20
 70
     0
102
RTVSPropertyOp21
 70
     0
102
RTVSPropertyOp22
 70
     0
102
RTVSPropertyOp23
 70
     0
102
RTVSPropertyOp24
 70
     0
102
RTVSPropertyOp25
 70
     0
102
RTVSPropertyOp26
 70
     0
102
RTVSPropertyOp27
 70
     0
102
RTVSPropertyOp28
 70
     0
102
RTVSPropertyOp29
 70
     0
102
RTVSPropertyOp30
 70
     0
102
RTVSPropertyOp31
 70
     0
102
RTVSPropertyOp32
 70
     0
  0
XRECORD
  5
29A0B
102
{ACAD_REACTORS
330
29A0A
102
}
330
29A0A
100
AcDbXrecord
280
     1
102
RTVSPropertyOp0
 70
     1
102
RTVSPropertyOp1
 70
     1
102
RTVSPropertyOp2
 70
     1
102
RTVSPropertyOp3
 70
     1
102
RTVSPropertyOp4
 70
     1
102
RTVSPropertyOp5
 70
     1
102
RTVSPropertyOp6
 70
     1
102
RTVSPropertyOp7
 70
     1
102
RTVSPropertyOp8
 70
     1
102
RTVSPropertyOp9
 70
     1
102
RTVSPropertyOp10
 70
     1
102
RTVSPropertyOp11
 70
     1
102
RTVSPropertyOp12
 70
     1
102
RTVSPropertyOp13
 70
     1
102
RTVSPropertyOp14
 70
     1
102
RTVSPropertyOp15
 70
     1
102
RTVSPropertyOp16
 70
     1
102
RTVSPropertyOp17
 70
     1
102
RTVSPropertyOp18
 70
     1
102
RTVSPropertyOp19
 70
     1
102
RTVSPropertyOp20
 70
     1
102
RTVSPropertyOp21
 70
     1
102
RTVSPropertyOp22
 70
     1
102
RTVSPropertyOp23
 70
     1
102
RTVSPropertyOp24
 70
     1
102
RTVSPropertyOp25
 70
     1
102
RTVSPropertyOp26
 70
     1
102
RTVSPropertyOp27
 70
     1
102
RTVSPropertyOp28
 70
     1
102
RTVSPropertyOp29
 70
     1
102
RTVSPropertyOp30
 70
     1
102
RTVSPropertyOp31
 70
     1
102
RTVSPropertyOp32
 70
     1
  0
XRECORD
  5
299F7
102
{ACAD_REACTORS
330
299F6
102
}
330
299F6
100
AcDbXrecord
280
     1
102
RTVSPropertyOp0
 70
     1
102
RTVSPropertyOp1
 70
     1
102
RTVSPropertyOp2
 70
     1
102
RTVSPropertyOp3
 70
     1
102
RTVSPropertyOp4
 70
     1
102
RTVSPropertyOp5
 70
     1
102
RTVSPropertyOp6
 70
     1
102
RTVSPropertyOp7
 70
     1
102
RTVSPropertyOp8
 70
     1
102
RTVSPropertyOp9
 70
     1
102
RTVSPropertyOp10
 70
     1
102
RTVSPropertyOp11
 70
     1
102
RTVSPropertyOp12
 70
     1
102
RTVSPropertyOp13
 70
     1
102
RTVSPropertyOp14
 70
     1
102
RTVSPropertyOp15
 70
     1
102
RTVSPropertyOp16
 70
     1
102
RTVSPropertyOp17
 70
     1
102
RTVSPropertyOp18
 70
     1
102
RTVSPropertyOp19
 70
     1
102
RTVSPropertyOp20
 70
     1
102
RTVSPropertyOp21
 70
     1
102
RTVSPropertyOp22
 70
     1
102
RTVSPropertyOp23
 70
     1
102
RTVSPropertyOp24
 70
     1
102
RTVSPropertyOp25
 70
     1
102
RTVSPropertyOp26
 70
     1
102
RTVSPropertyOp27
 70
     1
102
RTVSPropertyOp28
 70
     1
102
RTVSPropertyOp29
 70
     1
102
RTVSPropertyOp30
 70
     1
102
RTVSPropertyOp31
 70
     1
102
RTVSPropertyOp32
 70
     1
  0
XRECORD
  5
299F9
102
{ACAD_REACTORS
330
299F8
102
}
330
299F8
100
AcDbXrecord
280
     1
102
RTVSPropertyOp0
 70
     1
102
RTVSPropertyOp1
 70
     1
102
RTVSPropertyOp2
 70
     1
102
RTVSPropertyOp3
 70
     1
102
RTVSPropertyOp4
 70
     1
102
RTVSPropertyOp5
 70
     1
102
RTVSPropertyOp6
 70
     1
102
RTVSPropertyOp7
 70
     1
102
RTVSPropertyOp8
 70
     1
102
RTVSPropertyOp9
 70
     1
102
RTVSPropertyOp10
 70
     1
102
RTVSPropertyOp11
 70
     1
102
RTVSPropertyOp12
 70
     1
102
RTVSPropertyOp13
 70
     1
102
RTVSPropertyOp14
 70
     1
102
RTVSPropertyOp15
 70
     1
102
RTVSPropertyOp16
 70
     1
102
RTVSPropertyOp17
 70
     1
102
RTVSPropertyOp18
 70
     1
102
RTVSPropertyOp19
 70
     1
102
RTVSPropertyOp20
 70
     1
102
RTVSPropertyOp21
 70
     1
102
RTVSPropertyOp22
 70
     1
102
RTVSPropertyOp23
 70
     1
102
RTVSPropertyOp24
 70
     1
102
RTVSPropertyOp25
 70
     1
102
RTVSPropertyOp26
 70
     1
102
RTVSPropertyOp27
 70
     1
102
RTVSPropertyOp28
 70
     1
102
RTVSPropertyOp29
 70
     1
102
RTVSPropertyOp30
 70
     1
102
RTVSPropertyOp31
 70
     1
102
RTVSPropertyOp32
 70
     1
  0
XRECORD
  5
299FB
102
{ACAD_REACTORS
330
299FA
102
}
330
299FA
100
AcDbXrecord
280
     1
102
RTVSPropertyOp0
 70
     1
102
RTVSPropertyOp1
 70
     1
102
RTVSPropertyOp2
 70
     1
102
RTVSPropertyOp3
 70
     1
102
RTVSPropertyOp4
 70
     1
102
RTVSPropertyOp5
 70
     1
102
RTVSPropertyOp6
 70
     1
102
RTVSPropertyOp7
 70
     1
102
RTVSPropertyOp8
 70
     1
102
RTVSPropertyOp9
 70
     1
102
RTVSPropertyOp10
 70
     1
102
RTVSPropertyOp11
 70
     1
102
RTVSPropertyOp12
 70
     1
102
RTVSPropertyOp13
 70
     1
102
RTVSPropertyOp14
 70
     1
102
RTVSPropertyOp15
 70
     1
102
RTVSPropertyOp16
 70
     1
102
RTVSPropertyOp17
 70
     1
102
RTVSPropertyOp18
 70
     1
102
RTVSPropertyOp19
 70
     1
102
RTVSPropertyOp20
 70
     1
102
RTVSPropertyOp21
 70
     1
102
RTVSPropertyOp22
 70
     1
102
RTVSPropertyOp23
 70
     1
102
RTVSPropertyOp24
 70
     1
102
RTVSPropertyOp25
 70
     1
102
RTVSPropertyOp26
 70
     1
102
RTVSPropertyOp27
 70
     1
102
RTVSPropertyOp28
 70
     1
102
RTVSPropertyOp29
 70
     1
102
RTVSPropertyOp30
 70
     1
102
RTVSPropertyOp31
 70
     1
102
RTVSPropertyOp32
 70
     1
  0
XRECORD
  5
299FD
102
{ACAD_REACTORS
330
299FC
102
}
330
299FC
100
AcDbXrecord
280
     1
102
RTVSPropertyOp0
 70
     1
102
RTVSPropertyOp1
 70
     1
102
RTVSPropertyOp2
 70
     1
102
RTVSPropertyOp3
 70
     1
102
RTVSPropertyOp4
 70
     1
102
RTVSPropertyOp5
 70
     1
102
RTVSPropertyOp6
 70
     1
102
RTVSPropertyOp7
 70
     1
102
RTVSPropertyOp8
 70
     1
102
RTVSPropertyOp9
 70
     1
102
RTVSPropertyOp10
 70
     1
102
RTVSPropertyOp11
 70
     1
102
RTVSPropertyOp12
 70
     1
102
RTVSPropertyOp13
 70
     1
102
RTVSPropertyOp14
 70
     1
102
RTVSPropertyOp15
 70
     1
102
RTVSPropertyOp16
 70
     1
102
RTVSPropertyOp17
 70
     1
102
RTVSPropertyOp18
 70
     1
102
RTVSPropertyOp19
 70
     1
102
RTVSPropertyOp20
 70
     1
102
RTVSPropertyOp21
 70
     1
102
RTVSPropertyOp22
 70
     1
102
RTVSPropertyOp23
 70
     1
102
RTVSPropertyOp24
 70
     1
102
RTVSPropertyOp25
 70
     1
102
RTVSPropertyOp26
 70
     1
102
RTVSPropertyOp27
 70
     1
102
RTVSPropertyOp28
 70
     1
102
RTVSPropertyOp29
 70
     1
102
RTVSPropertyOp30
 70
     1
102
RTVSPropertyOp31
 70
     1
102
RTVSPropertyOp32
 70
     1
  0
XRECORD
  5
29A1E
102
{ACAD_REACTORS
330
29A1D
102
}
330
29A1D
100
AcDbXrecord
280
     1
102
RTVSPropertyOp0
 70
     1
102
RTVSPropertyOp1
 70
     1
102
RTVSPropertyOp2
 70
     1
102
RTVSPropertyOp3
 70
     1
102
RTVSPropertyOp4
 70
     1
102
RTVSPropertyOp5
 70
     1
102
RTVSPropertyOp6
 70
     1
102
RTVSPropertyOp7
 70
     1
102
RTVSPropertyOp8
 70
     1
102
RTVSPropertyOp9
 70
     1
102
RTVSPropertyOp10
 70
     1
102
RTVSPropertyOp11
 70
     1
102
RTVSPropertyOp12
 70
     1
102
RTVSPropertyOp13
 70
     1
102
RTVSPropertyOp14
 70
     1
102
RTVSPropertyOp15
 70
     1
102
RTVSPropertyOp16
 70
     1
102
RTVSPropertyOp17
 70
     1
102
RTVSPropertyOp18
 70
     1
102
RTVSPropertyOp19
 70
     1
102
RTVSPropertyOp20
 70
     1
102
RTVSPropertyOp21
 70
     1
102
RTVSPropertyOp22
 70
     1
102
RTVSPropertyOp23
 70
     1
102
RTVSPropertyOp24
 70
     1
102
RTVSPropertyOp25
 70
     1
102
RTVSPropertyOp26
 70
     1
102
RTVSPropertyOp27
 70
     1
102
RTVSPropertyOp28
 70
     1
102
RTVSPropertyOp29
 70
     1
102
RTVSPropertyOp30
 70
     1
102
RTVSPropertyOp31
 70
     1
102
RTVSPropertyOp32
 70
     1
  0
XRECORD
  5
29A2A
102
{ACAD_REACTORS
330
29A29
102
}
330
29A29
100
AcDbXrecord
280
     1
102
RTVSPropertyOp0
 70
     0
102
RTVSPropertyOp1
 70
     0
102
RTVSPropertyOp2
 70
     0
102
RTVSPropertyOp3
 70
     0
102
RTVSPropertyOp4
 70
     0
102
RTVSPropertyOp5
 70
     0
102
RTVSPropertyOp6
 70
     0
102
RTVSPropertyOp7
 70
     0
102
RTVSPropertyOp8
 70
     0
102
RTVSPropertyOp9
 70
     0
102
RTVSPropertyOp10
 70
     0
102
RTVSPropertyOp11
 70
     0
102
RTVSPropertyOp12
 70
     0
102
RTVSPropertyOp13
 70
     0
102
RTVSPropertyOp14
 70
     2
102
RTVSPropertyOp15
 70
     0
102
RTVSPropertyOp16
 70
     0
102
RTVSPropertyOp17
 70
     0
102
RTVSPropertyOp18
 70
     0
102
RTVSPropertyOp19
 70
     0
102
RTVSPropertyOp20
 70
     0
102
RTVSPropertyOp21
 70
     0
102
RTVSPropertyOp22
 70
     0
102
RTVSPropertyOp23
 70
     0
102
RTVSPropertyOp24
 70
     0
102
RTVSPropertyOp25
 70
     0
102
RTVSPropertyOp26
 70
     0
102
RTVSPropertyOp27
 70
     0
102
RTVSPropertyOp28
 70
     0
102
RTVSPropertyOp29
 70
     0
102
RTVSPropertyOp30
 70
     0
102
RTVSPropertyOp31
 70
     0
102
RTVSPropertyOp32
 70
     0
  0
XRECORD
  5
29A09
102
{ACAD_REACTORS
330
29A08
102
}
330
29A08
100
AcDbXrecord
280
     1
102
RTVSPropertyOp0
 70
     1
102
RTVSPropertyOp1
 70
     1
102
RTVSPropertyOp2
 70
     1
102
RTVSPropertyOp3
 70
     1
102
RTVSPropertyOp4
 70
     1
102
RTVSPropertyOp5
 70
     1
102
RTVSPropertyOp6
 70
     1
102
RTVSPropertyOp7
 70
     1
102
RTVSPropertyOp8
 70
     1
102
RTVSPropertyOp9
 70
     1
102
RTVSPropertyOp10
 70
     1
102
RTVSPropertyOp11
 70
     1
102
RTVSPropertyOp12
 70
     1
102
RTVSPropertyOp13
 70
     1
102
RTVSPropertyOp14
 70
     1
102
RTVSPropertyOp15
 70
     1
102
RTVSPropertyOp16
 70
     1
102
RTVSPropertyOp17
 70
     1
102
RTVSPropertyOp18
 70
     1
102
RTVSPropertyOp19
 70
     1
102
RTVSPropertyOp20
 70
     1
102
RTVSPropertyOp21
 70
     1
102
RTVSPropertyOp22
 70
     1
102
RTVSPropertyOp23
 70
     1
102
RTVSPropertyOp24
 70
     1
102
RTVSPropertyOp25
 70
     1
102
RTVSPropertyOp26
 70
     1
102
RTVSPropertyOp27
 70
     1
102
RTVSPropertyOp28
 70
     1
102
RTVSPropertyOp29
 70
     1
102
RTVSPropertyOp30
 70
     1
102
RTVSPropertyOp31
 70
     1
102
RTVSPropertyOp32
 70
     1
  0
XRECORD
  5
29A2C
102
{ACAD_REACTORS
330
29A2B
102
}
330
29A2B
100
AcDbXrecord
280
     1
102
RTVSPropertyOp0
 70
     0
102
RTVSPropertyOp1
 70
     0
102
RTVSPropertyOp2
 70
     0
102
RTVSPropertyOp3
 70
     0
102
RTVSPropertyOp4
 70
     0
102
RTVSPropertyOp5
 70
     0
102
RTVSPropertyOp6
 70
     0
102
RTVSPropertyOp7
 70
     0
102
RTVSPropertyOp8
 70
     0
102
RTVSPropertyOp9
 70
     0
102
RTVSPropertyOp10
 70
     0
102
RTVSPropertyOp11
 70
     0
102
RTVSPropertyOp12
 70
     0
102
RTVSPropertyOp13
 70
     0
102
RTVSPropertyOp14
 70
     2
102
RTVSPropertyOp15
 70
     0
102
RTVSPropertyOp16
 70
     0
102
RTVSPropertyOp17
 70
     0
102
RTVSPropertyOp18
 70
     0
102
RTVSPropertyOp19
 70
     0
102
RTVSPropertyOp20
 70
     0
102
RTVSPropertyOp21
 70
     0
102
RTVSPropertyOp22
 70
     0
102
RTVSPropertyOp23
 70
     0
102
RTVSPropertyOp24
 70
     0
102
RTVSPropertyOp25
 70
     0
102
RTVSPropertyOp26
 70
     0
102
RTVSPropertyOp27
 70
     0
102
RTVSPropertyOp28
 70
     0
102
RTVSPropertyOp29
 70
     0
102
RTVSPropertyOp30
 70
     0
102
RTVSPropertyOp31
 70
     0
102
RTVSPropertyOp32
 70
     0
  0
XRECORD
  5
29A1A
102
{ACAD_REACTORS
330
29A19
102
}
330
29A19
100
AcDbXrecord
280
     1
102
RTVSPropertyOp0
 70
     1
102
RTVSPropertyOp1
 70
     1
102
RTVSPropertyOp2
 70
     1
102
RTVSPropertyOp3
 70
     1
102
RTVSPropertyOp4
 70
     1
102
RTVSPropertyOp5
 70
     1
102
RTVSPropertyOp6
 70
     1
102
RTVSPropertyOp7
 70
     1
102
RTVSPropertyOp8
 70
     1
102
RTVSPropertyOp9
 70
     1
102
RTVSPropertyOp10
 70
     1
102
RTVSPropertyOp11
 70
     1
102
RTVSPropertyOp12
 70
     1
102
RTVSPropertyOp13
 70
     1
102
RTVSPropertyOp14
 70
     1
102
RTVSPropertyOp15
 70
     1
102
RTVSPropertyOp16
 70
     1
102
RTVSPropertyOp17
 70
     1
102
RTVSPropertyOp18
 70
     1
102
RTVSPropertyOp19
 70
     1
102
RTVSPropertyOp20
 70
     1
102
RTVSPropertyOp21
 70
     1
102
RTVSPropertyOp22
 70
     1
102
RTVSPropertyOp23
 70
     1
102
RTVSPropertyOp24
 70
     1
102
RTVSPropertyOp25
 70
     1
102
RTVSPropertyOp26
 70
     1
102
RTVSPropertyOp27
 70
     1
102
RTVSPropertyOp28
 70
     1
102
RTVSPropertyOp29
 70
     1
102
RTVSPropertyOp30
 70
     1
102
RTVSPropertyOp31
 70
     1
102
RTVSPropertyOp32
 70
     1
  0
XRECORD
  5
29A28
102
{ACAD_REACTORS
330
29A27
102
}
330
29A27
100
AcDbXrecord
280
     1
102
RTVSPropertyOp0
 70
     1
102
RTVSPropertyOp1
 70
     1
102
RTVSPropertyOp2
 70
     1
102
RTVSPropertyOp3
 70
     1
102
RTVSPropertyOp4
 70
     1
102
RTVSPropertyOp5
 70
     1
102
RTVSPropertyOp6
 70
     1
102
RTVSPropertyOp7
 70
     1
102
RTVSPropertyOp8
 70
     1
102
RTVSPropertyOp9
 70
     1
102
RTVSPropertyOp10
 70
     1
102
RTVSPropertyOp11
 70
     1
102
RTVSPropertyOp12
 70
     1
102
RTVSPropertyOp13
 70
     1
102
RTVSPropertyOp14
 70
     1
102
RTVSPropertyOp15
 70
     1
102
RTVSPropertyOp16
 70
     1
102
RTVSPropertyOp17
 70
     1
102
RTVSPropertyOp18
 70
     1
102
RTVSPropertyOp19
 70
     1
102
RTVSPropertyOp20
 70
     1
102
RTVSPropertyOp21
 70
     1
102
RTVSPropertyOp22
 70
     1
102
RTVSPropertyOp23
 70
     1
102
RTVSPropertyOp24
 70
     1
102
RTVSPropertyOp25
 70
     1
102
RTVSPropertyOp26
 70
     1
102
RTVSPropertyOp27
 70
     1
102
RTVSPropertyOp28
 70
     1
102
RTVSPropertyOp29
 70
     1
102
RTVSPropertyOp30
 70
     1
102
RTVSPropertyOp31
 70
     1
102
RTVSPropertyOp32
 70
     1
  0
XRECORD
  5
29A26
102
{ACAD_REACTORS
330
29A25
102
}
330
29A25
100
AcDbXrecord
280
     1
102
RTVSPropertyOp0
 70
     1
102
RTVSPropertyOp1
 70
     1
102
RTVSPropertyOp2
 70
     1
102
RTVSPropertyOp3
 70
     1
102
RTVSPropertyOp4
 70
     1
102
RTVSPropertyOp5
 70
     1
102
RTVSPropertyOp6
 70
     1
102
RTVSPropertyOp7
 70
     1
102
RTVSPropertyOp8
 70
     1
102
RTVSPropertyOp9
 70
     1
102
RTVSPropertyOp10
 70
     1
102
RTVSPropertyOp11
 70
     1
102
RTVSPropertyOp12
 70
     1
102
RTVSPropertyOp13
 70
     1
102
RTVSPropertyOp14
 70
     1
102
RTVSPropertyOp15
 70
     1
102
RTVSPropertyOp16
 70
     1
102
RTVSPropertyOp17
 70
     1
102
RTVSPropertyOp18
 70
     1
102
RTVSPropertyOp19
 70
     1
102
RTVSPropertyOp20
 70
     1
102
RTVSPropertyOp21
 70
     1
102
RTVSPropertyOp22
 70
     1
102
RTVSPropertyOp23
 70
     1
102
RTVSPropertyOp24
 70
     1
102
RTVSPropertyOp25
 70
     1
102
RTVSPropertyOp26
 70
     1
102
RTVSPropertyOp27
 70
     1
102
RTVSPropertyOp28
 70
     1
102
RTVSPropertyOp29
 70
     1
102
RTVSPropertyOp30
 70
     1
102
RTVSPropertyOp31
 70
     1
102
RTVSPropertyOp32
 70
     1
  0
XRECORD
  5
29A20
102
{ACAD_REACTORS
330
29A1F
102
}
330
29A1F
100
AcDbXrecord
280
     1
102
RTVSPropertyOp0
 70
     1
102
RTVSPropertyOp1
 70
     1
102
RTVSPropertyOp2
 70
     1
102
RTVSPropertyOp3
 70
     1
102
RTVSPropertyOp4
 70
     1
102
RTVSPropertyOp5
 70
     1
102
RTVSPropertyOp6
 70
     1
102
RTVSPropertyOp7
 70
     1
102
RTVSPropertyOp8
 70
     1
102
RTVSPropertyOp9
 70
     1
102
RTVSPropertyOp10
 70
     1
102
RTVSPropertyOp11
 70
     1
102
RTVSPropertyOp12
 70
     1
102
RTVSPropertyOp13
 70
     1
102
RTVSPropertyOp14
 70
     1
102
RTVSPropertyOp15
 70
     1
102
RTVSPropertyOp16
 70
     1
102
RTVSPropertyOp17
 70
     1
102
RTVSPropertyOp18
 70
     1
102
RTVSPropertyOp19
 70
     1
102
RTVSPropertyOp20
 70
     1
102
RTVSPropertyOp21
 70
     1
102
RTVSPropertyOp22
 70
     1
102
RTVSPropertyOp23
 70
     1
102
RTVSPropertyOp24
 70
     1
102
RTVSPropertyOp25
 70
     1
102
RTVSPropertyOp26
 70
     1
102
RTVSPropertyOp27
 70
     1
102
RTVSPropertyOp28
 70
     1
102
RTVSPropertyOp29
 70
     1
102
RTVSPropertyOp30
 70
     1
102
RTVSPropertyOp31
 70
     1
102
RTVSPropertyOp32
 70
     1
  0
XRECORD
  5
29A22
102
{ACAD_REACTORS
330
29A21
102
}
330
29A21
100
AcDbXrecord
280
     1
102
RTVSPropertyOp0
 70
     1
102
RTVSPropertyOp1
 70
     1
102
RTVSPropertyOp2
 70
     1
102
RTVSPropertyOp3
 70
     1
102
RTVSPropertyOp4
 70
     1
102
RTVSPropertyOp5
 70
     1
102
RTVSPropertyOp6
 70
     1
102
RTVSPropertyOp7
 70
     1
102
RTVSPropertyOp8
 70
     1
102
RTVSPropertyOp9
 70
     1
102
RTVSPropertyOp10
 70
     1
102
RTVSPropertyOp11
 70
     1
102
RTVSPropertyOp12
 70
     1
102
RTVSPropertyOp13
 70
     1
102
RTVSPropertyOp14
 70
     1
102
RTVSPropertyOp15
 70
     1
102
RTVSPropertyOp16
 70
     1
102
RTVSPropertyOp17
 70
     1
102
RTVSPropertyOp18
 70
     1
102
RTVSPropertyOp19
 70
     1
102
RTVSPropertyOp20
 70
     1
102
RTVSPropertyOp21
 70
     1
102
RTVSPropertyOp22
 70
     1
102
RTVSPropertyOp23
 70
     1
102
RTVSPropertyOp24
 70
     1
102
RTVSPropertyOp25
 70
     1
102
RTVSPropertyOp26
 70
     1
102
RTVSPropertyOp27
 70
     1
102
RTVSPropertyOp28
 70
     1
102
RTVSPropertyOp29
 70
     1
102
RTVSPropertyOp30
 70
     1
102
RTVSPropertyOp31
 70
     1
102
RTVSPropertyOp32
 70
     1
  0
XRECORD
  5
29A07
102
{ACAD_REACTORS
330
29A06
102
}
330
29A06
100
AcDbXrecord
280
     1
102
RTVSPropertyOp0
 70
     1
102
RTVSPropertyOp1
 70
     1
102
RTVSPropertyOp2
 70
     1
102
RTVSPropertyOp3
 70
     1
102
RTVSPropertyOp4
 70
     1
102
RTVSPropertyOp5
 70
     1
102
RTVSPropertyOp6
 70
     1
102
RTVSPropertyOp7
 70
     1
102
RTVSPropertyOp8
 70
     1
102
RTVSPropertyOp9
 70
     1
102
RTVSPropertyOp10
 70
     1
102
RTVSPropertyOp11
 70
     1
102
RTVSPropertyOp12
 70
     1
102
RTVSPropertyOp13
 70
     1
102
RTVSPropertyOp14
 70
     1
102
RTVSPropertyOp15
 70
     1
102
RTVSPropertyOp16
 70
     1
102
RTVSPropertyOp17
 70
     1
102
RTVSPropertyOp18
 70
     1
102
RTVSPropertyOp19
 70
     1
102
RTVSPropertyOp20
 70
     1
102
RTVSPropertyOp21
 70
     1
102
RTVSPropertyOp22
 70
     1
102
RTVSPropertyOp23
 70
     1
102
RTVSPropertyOp24
 70
     1
102
RTVSPropertyOp25
 70
     1
102
RTVSPropertyOp26
 70
     1
102
RTVSPropertyOp27
 70
     1
102
RTVSPropertyOp28
 70
     1
102
RTVSPropertyOp29
 70
     1
102
RTVSPropertyOp30
 70
     1
102
RTVSPropertyOp31
 70
     1
102
RTVSPropertyOp32
 70
     1
  0
XRECORD
  5
29A1C
102
{ACAD_REACTORS
330
29A1B
102
}
330
29A1B
100
AcDbXrecord
280
     1
102
RTVSPropertyOp0
 70
     1
102
RTVSPropertyOp1
 70
     1
102
RTVSPropertyOp2
 70
     1
102
RTVSPropertyOp3
 70
     1
102
RTVSPropertyOp4
 70
     1
102
RTVSPropertyOp5
 70
     1
102
RTVSPropertyOp6
 70
     1
102
RTVSPropertyOp7
 70
     1
102
RTVSPropertyOp8
 70
     1
102
RTVSPropertyOp9
 70
     1
102
RTVSPropertyOp10
 70
     1
102
RTVSPropertyOp11
 70
     1
102
RTVSPropertyOp12
 70
     1
102
RTVSPropertyOp13
 70
     1
102
RTVSPropertyOp14
 70
     1
102
RTVSPropertyOp15
 70
     1
102
RTVSPropertyOp16
 70
     1
102
RTVSPropertyOp17
 70
     1
102
RTVSPropertyOp18
 70
     1
102
RTVSPropertyOp19
 70
     1
102
RTVSPropertyOp20
 70
     1
102
RTVSPropertyOp21
 70
     1
102
RTVSPropertyOp22
 70
     1
102
RTVSPropertyOp23
 70
     1
102
RTVSPropertyOp24
 70
     1
102
RTVSPropertyOp25
 70
     1
102
RTVSPropertyOp26
 70
     1
102
RTVSPropertyOp27
 70
     1
102
RTVSPropertyOp28
 70
     1
102
RTVSPropertyOp29
 70
     1
102
RTVSPropertyOp30
 70
     1
102
RTVSPropertyOp31
 70
     1
102
RTVSPropertyOp32
 70
     1
  0
XRECORD
  5
29A24
102
{ACAD_REACTORS
330
29A23
102
}
330
29A23
100
AcDbXrecord
280
     1
102
RTVSPropertyOp0
 70
     1
102
RTVSPropertyOp1
 70
     1
102
RTVSPropertyOp2
 70
     1
102
RTVSPropertyOp3
 70
     1
102
RTVSPropertyOp4
 70
     1
102
RTVSPropertyOp5
 70
     1
102
RTVSPropertyOp6
 70
     1
102
RTVSPropertyOp7
 70
     1
102
RTVSPropertyOp8
 70
     1
102
RTVSPropertyOp9
 70
     1
102
RTVSPropertyOp10
 70
     1
102
RTVSPropertyOp11
 70
     1
102
RTVSPropertyOp12
 70
     1
102
RTVSPropertyOp13
 70
     1
102
RTVSPropertyOp14
 70
     1
102
RTVSPropertyOp15
 70
     1
102
RTVSPropertyOp16
 70
     1
102
RTVSPropertyOp17
 70
     1
102
RTVSPropertyOp18
 70
     1
102
RTVSPropertyOp19
 70
     1
102
RTVSPropertyOp20
 70
     1
102
RTVSPropertyOp21
 70
     1
102
RTVSPropertyOp22
 70
     1
102
RTVSPropertyOp23
 70
     1
102
RTVSPropertyOp24
 70
     1
102
RTVSPropertyOp25
 70
     1
102
RTVSPropertyOp26
 70
     1
102
RTVSPropertyOp27
 70
     1
102
RTVSPropertyOp28
 70
     1
102
RTVSPropertyOp29
 70
     1
102
RTVSPropertyOp30
 70
     1
102
RTVSPropertyOp31
 70
     1
102
RTVSPropertyOp32
 70
     1
  0
ENDSEC
  0
EOF
